>
 >
Ice Titan

Ice Titan Guitar Tabs

Slayer - Ice Titan chords, tabs, tablatures, lyrics

Guitar lessons | Add/correct | Request | Top 50 tabs Artists:  A B C D E F G H I J K L M N O P Q R S T U V W X Y Z 0-9

Ice Titan Guitar Tabs – Slayer

CD, Sheet music, Poster

Do you like Ice Titan? Share with your friends now
Tabs
ICE TITAN

Slayer

unreleased



| = not a standard bar line; just used to separate music
~ = vibrato or held note
h = hammer on
p = pull off
s = slide
b = bend string up to indicated pitch/fret
r = release bend to indicated string/fret
/ = slide up from infinity
\ = slide down into infinity


                     4 times                    4 times
e:-14~~~--|------------------------------|-------------------------------|
B:--------|------------------------------|-------------------------------|
G:--------|------------------------------|-16-16-16-14-14-14-------------|
D:--------|-16-16-16-14-14-14------------|-------------------15-15-15-14-|
A:--------|-------------------15-15-15-14|-------------------------------|
E:--------|------------------------------|-------------------------------|

      2 times                         verse:  then play it 4 times
e:----------------------------------|
B:----------------------------------|
G:----------------------------------|
D:----------------------------------|
A:--2---------8--------3-------8-10-|
E:--0-0-3b-0--6--0-0-0-1-0-0-0-6-8--|


e:---------------------------------|
B:---------------------------------|
G:------------------5p4---4----5---|
D:-------9-------9------7---5--3-5-|
A:-------7-------7---------------3-|
E:-0-0-0---0-0-0-------------------|


e:--------------------------------------|
B:--------------------------------------|
G:--------------------------------------|
D:-------9--------9---5p4---4------5--7-|
A:-------7--------7-------5---5p4--3--5-|
E:-0-0-0----0-0-0-----------------------|


e:------------------------------------------|
B:------------------------------------------|
G:------------------------------------------|
D:-------9-------9--5p4---4-----------------|
A:-------7-------7------5---5p4-6p5---4-----|
E:-0-0-0---0-0-0--------------------5---5p4-|


solo 1
   t     t     t     t     t     t                                 t
e:15p12-15p12-15p12-15p12-15p12-15p12-----------------------------15p12|
B:-------------------------------------14b--14b-14b-(14b)p12--16b------|
G:---------------------------------------------------------------------|
D:---------------------------------------------------------------------|
A:---------------------------------------------------------------------|
E:---------------------------------------------------------------------|

   t     t     t     t     t     t     t     t     t     t     t     t
e:15p12-15p12-15p12-15p12-17p14-17p14-17p14-17p14-19p15-19p15-19p15-19p15|
B:-----------------------------------------------------------------------|
G------------------------------------------------------------------------|
D:-----------------------------------------------------------------------|
A:-----------------------------------------------------------------------|
E:-----------------------------------------------------------------------|

                                                    bar-----------------
e:20b---------------------------------------------------------------|
B:------------------------------------------------------------------|
G:-------------------10b-10b-10b-10ahb--4p0h4p0h4p0--0-5p0h5p0h5p0--|
D:-----4-0-2-4-4----------------------------------------------------|
A:---------------3-3------------------------------------------------|
E:------------------------------------------------------------------|

  -------------
e:-----------------------|
B:-----------------------|
G:-7p0h7p0h7p0--7/---17b-|
D:-----------------------|
A:-----------------------|
E:-----------------------|


  repeat riff of the verse
e:-------------------------|------------|
B:-------------------------|------------|
G:-------------------------|------------|
D:-------------------------|------------|
A:-------------------------|-2-(2)-(2)--|
E:-------------------------|-0-(0)-(0)--|



e:------------------------------------|
B:------------------------------------|
G:------------------------------------|
D:9-9-7/9--9-9-10/12--5-5-4/5--7-7-5/7|
A:7-7-5/7--7-7-8-/10--3-3-2/3--5-5-3/5|
E:0-0------0-0---------------------0--|


solo 2
e:-----------------------------------15p12-------15p12-------15p12-17b-|
B:-16b-16-16~~~~--16b-16b------16b~~-------15p12-------15p12-----------|
G:-------------------------16b-----------------------------------------|
D:---------------------------------------------------------------------|
A:---------------------------------------------------------------------|
E:---------------------------------------------------------------------|

                                                 3 times
e:-17b~~~---------------------------------------|-------|----7/15-15~~|
B:----------------------------------------------|-------|-------------|
G:-----------------------------------5-7-5-7--7b|-7bp5--|-7b----------|
D:---------------------------5-7-5-7------------|------7|-------------|
A:-------------------5-7-5-7--------------------|-------|-------------|
E:-------------5-7-8----------------------------|-------|-------------|
           PM...............................


e:15~--15~~~/--19b-19~~~-|-19-17-16----17-16-------16------------------|
B:-----------------------|----------19-------19-17----19-17-16-------16|
G:-----------------------|-------------------------------------18-17---|
D:-----------------------|---------------------------------------------|
A:-----------------------|---------------------------------------------|
E:-----------------------|---------------------------------------------|


e:---------------------------------------------------------------------|
B:---------------------------------------------------------------------|
G:-18-17-15-14-17-15-14----16-14-------14------------------------------|
D:----------------------17-------17-16----14-17-16-14----16-14-------14|
A:----------------------------------------------------17-------17-16---|
E:---------------------------------------------------------------------|

                             6 times                         3 times
e:--------------------------|---------|---------------------|18p15h18-|
B:--------------------------|---------|-------------15h18p15|---------|
G:--------------------------|-14h16p14|----14h16p14---------|---------|
D:---------------14---------|---------|-17------------------|---------|
A:17-16-14-16-17----17-16-14|---------|---------------------|---------|
E:--------------------------|---------|---------------------|---------|


   3 times  3 times               4 times       4 times
e:--------|---------|-22b-22b~~-|----------|---------------|
B:18p15h18|---------|-----------|----------|---------------|
G:--------|-17p15h17|-----------|----------|-16p14-16p4----|
D:--------|---------|-----------|-9p7-9p7--|------------16-|
A:--------|---------|-----------|---------9|---------------|
E:--------|---------|-----------|----------|---------------|

                                            repeat
                                 2 times   with las...i dont know
e:--------------|--------------|----------|----------------------|
B:--------------|--------------|----------|----------------------|
G:--------------|--------------|----------|----------------------|
D:-9-12-11-12-7-|--9-12-11-12-9|-9-11-12-9|--9--7--5--7----------|
A:-7-10-9--10-5-|--7-10-9--10-7|-7-9--10-7|--7--5--3--5----------|
E:--------------|--------------|----------|----------------------|


solo 3
e:---------------------------------------------------------------|
B:-----------------------------17b--17b--17p15h17p15h17p15h17p15-|
G:-16~--19~--14~~--12~~--14~~------------------------------------|
D:---------------------------------------------------------------|
A:---------------------------------------------------------------|
E:---------------------------------------------------------------|


     repeat                repite
e:-17p14-17p14-17p14----|-19p17-19p17-19p17---|-19b-19b-19b~~~-|
B:-------------------17-|-------------------19|----------------|
G:----------------------|---------------------|----------------|
D:----------------------|---------------------|----------------|
A:----------------------|---------------------|----------------|
E:----------------------|---------------------|----------------|


   2 times       pick slide intro  verse (1st)
e:--------------|----------|-----|------------|----------------------|
B:--------------|----------|-----|------------|----------------------|
G:--------------|----------|-----|------------|----------------------|
D:--------------|----------|-----|------------|-5p4---4--------------|
A:-7-10-9--5-7-9|-x/-------|-----|------------|-----5---5p4----4-----|
E:-5-8--7--3-5-7|-x/-------|-----|------------|--------------5---5p4-|



e:----------------|--------------------------------|
B:----------------|--------------------------------|
G:5p4---4----5----|--------------------------------|
D:----7---5--3--5-|--9-9-9-7-7-7-------------2-/---|
A:--------------3-|--------------8-8-8-7--2--2-/---|
E:----------------|-----------------------0--0-/---|

heres ice titan, im not sure if in the middle of the second solo is right,
i pull it off that way, but i dunno it quite makes sences, but if not i dont
know. just doing this to waste time, well enjoy the tab. im gonna catch a
porn flix





Comments


Popular Slayer tabs & chords
Psychopathy Red Bass Tabs
Serenity In Murder Bass Tabs
Crionics Tabs
Die By The Sword Tabs
Disciple 3 Tabs
Jihad Tabs
Mandatory Suicide 4 Tabs
Sex, Murder, Art Tabs
South Of Heaven 4 Tabs
Wicked 1 Tabs


Song lyrics



↑ Back to top | Tablatures and chords are parodies/interpretations of the original songs. You may use it for private study, scholarship, research or language learning purposes only
© 2014 AZChords.com Contact us | Privacy policy | DMCA | Add/correct tabs | Request tabs | Top 50 tabs