>
 >
Human Disease

Human Disease Guitar Tabs

Slayer - Human Disease chords, tabs, tablatures, lyrics

Guitar lessons | Add/correct | Request | Top 50 tabs Artists:  A B C D E F G H I J K L M N O P Q R S T U V W X Y Z 0-9

Human Disease Guitar Tabs – Slayer

CD, Sheet music, Poster

Do you like Human Disease? Share with your friends now
Tabs
*SONG DOES NOT APPEAR IN FILM



   
gt1           pick slide           pick slide                 pick slide
eb:|--------|---------------------|-------------------------|-----------------------|
Bb:|--------|---------------------|-------------------------|-----------------------|
Gb:|--------|---------------------|-------------------------|-----------------------|
Db:|--------|---------------------|-------------------------|-----------------------|
Ab:|0-0-0-0-|-x\----------0-0-0-0-|-x\--------------0-0-0-0-|-x\---------0-0-0-0----|
Db:|0-0-0-0-|-x\----------0-0-0-0-|-x\--------------0-0-0-0-|-x\---------0-0-0-0----|


gt2
:-----------|---------------------|-------------------------|-----------------------|
:-----------|---------------------|-------------------------|-----------------------|
:-----------|-7h9p7h9p7etc--------|-9h11p9h11p9h11etc-------|7h9p7h9p7etc-----------|
:-----------|---------------------|-------------------------|-----------------------|
:---0-0-0-0-|---------------------|-------------------------|-----------------------|
:---0-0-0-0-|---------------------|-------------------------|-----------------------|


gt1
  pick slide
:--------------------|----------------|--------------|------------------|
:--------------------|----------------|--------------|------------------|
:--------------------|----------------|--------------|------------------|
:--------------------|----------------|--------------|------------------|
:-x\---------0-0-0-0-|--------0-0-0-0-|------0-0-0-0-|----------0-0-0-0-|
:-x\---------0-0-0-0-|--------0-0-0-0-|------0-0-0-0-|----------0-0-0-0-|


gt2   bar                                                 bar
:--------------------|-19b------------|--------------|------------------|
:--------------------|----------------|--------------|------------------|
:-----0--(0)---------|----------------|2b------------|----0-------------|
:--0-----------------|----------------|--------------|-0----------------|
:--------------------|----------------|--------------|------------------|
:--------------------|----------------|--------------|------------------|


       verse                                                                                                                
:-----------------------------------------------|
:-----------------------------------------------|
:-----------------------------------------------|
:-----------------------------------------------|
:4-1-0-----------1--------0-----0--1/5--5-5-2\1-|
:4-1-0--00-00-00-1-00-1-0-00-00-0--1/5--5-5-2\1-|


:------------------------------------------|
:------------------------------------------|
:------------------------------------------|
:------------------------------------------|
:4-1-0-----------1--------0-----0--3-2-2\1-|
:4-1-0--00-00-00-1-00-1-0-00-00-0--3-2-2\1-|


:-----------------------------------------------|-----------|
:-----------------------------------------------|-----------|
:-----------------------------------------------|-----------|
:-----------------------------------------------|-----------|
:4-1-0-----------1--------0-----0--1/5--5-5-2\1-|-1/5-5-5-5-|
:4-1-0--00-00-00-1-00-1-0-00-00-0--1/5--5-5-2\1-|-1/5-5-5-5-|



                          self destruction... 
                             play 2 times
:--------------------------|-------------------------------|
:--------------------------|-------------------------------|
:--------------------------|-------------------------------|
:-7-7--7-8----7-8-11-------|-7-7--7-8----7-8----7-8-11-10--|
:-0-5--0-6-0--5-6-9--8h9p8-|-0-5--0-6-0--5-6-0--5-6-9--8---|
:-0-0--0-0-0--0------------|-0-0--0-0-0--0-0-0--0----------|


  
              
:-------------------|---------------------|---------------------------------------------|
:-------------------|---------------------|---------------------------------------------|
:-------------------|---------------------|---------------------------------------------|
:-------------------|---------------------|---------------------------------------------|
:0--(0)-------------|-0--(0)----------3/6-|-0--(0)-------------0-0-0-0-0-0--------5-4-1-|
:0--(0)-2\1-3\2-2\1-|-0--(0)-2\1-3\2--3/6-|-0--(0)-2\1-3\2-2\1-0-0-0-0-0-0etc-3p2-5-4-1-|



:------------------------------------------|
:------------------------------------------|
:------------------------------------------|
:------------------------------------------|
:-----------1--------0-----0--1/5--5-5-2\1-|
:--00-00-00-1-00-1-0-00-00-0--1/5--5-5-2\1-|


:-------------------------------------|
:-------------------------------------|
:-------------------------------------|
:-------------------------------------|
:-----------1--------0-----0--3-2-2\1-|
:--00-00-00-1-00-1-0-00-00-0--3-2-2\1-|



:--------------------------------------------|
:--------------------------------------------|
:--------------------------------------------|
:--------------------------------------------|
:-------------1--------0-----0--1/5--5-5-2\1-|
:----00-00-00-1-00-1-0-00-00-0--1/5--5-5-2\1-|



:---------------------------------------|
:---------------------------------------|
:---------------------------------------|
:---------------------------------------|
:------------1--------0-----0--3-2-2-1-0|
:---00-00-00-1-00-1-0-00-00-0--3-2-2-1-0|



  repeat this part
:----------------------------------|-----------|
:----------------------------------|-----------|
:----------------------------------|-----------|
:----------------------------------|-----------|
:-5~~~~-8-7~~~-7-6~~~-6-5~~~-------|-8-7-8-10--|
:----------------------------------|-----------|


                             play 2 times
:--------------------------|-------------------------------|
:--------------------------|-------------------------------|
:--------------------------|-------------------------------|
:-7-7--7-8----7-8-11-------|-7-7--7-8----7-8----7-8-11-10--|
:-0-5--0-6-0--5-6-9--8h9p8-|-0-5--0-6-0--5-6-0--5-6-9--8---|
:-0-0--0-0-0--0------------|-0-0--0-0-0--0-0-0--0----------|



:--------------------------------------------------------------------------------|
:--------------------------------------------------------------------------------|
:--------------------------------------------------------------------------------|
:--------------------------------------------------------------------------------|
:0-0-0-0--5h8p5h8p5h8p5-0-0-0-0--5h6p5h6p5-0-0-0-0--3h6p3h6p3-0-0-0-0--3h4p3h4p3-|
:0-0-0-0----------------0-0-0-0------------0-0-0-0------------0-0-0-0------------|



:-----------------------------------------------------------------------------|
:-----------------------------------------------------------------------------|
:-----------------------------------------------------------------------------|
:-----------------------------------------------------------------------------|
:0-0-0-0--5h8p5h8p5h8p5-0-0-0-0--5h6p5h6p5-0-0-0-0--3h6p3h6p3-0-0-0-0--4-1-0--|
:0-0-0-0----------------0-0-0-0------------0-0-0-0------------0-0-0-0--4-1-0--|



play this under the solo
:------------------------------------------|
:------------------------------------------|
:------------------------------------------|
:------------------------------------------|
:-----------1--------0-----0--1/5--5-5-2\1-|
:--00-00-00-1-00-1-0-00-00-0--1/5--5-5-2\1-|


:-------------------------------------|
:-------------------------------------|
:-------------------------------------|
:-------------------------------------|
:-----------1--------0-----0-1/4-4-4--|
:--00-00-00-1-00-1-0-00-00-0-1/4-4-4--|


solo 1                   play 2 times
:----------------------|---------------------|------------------------------------------|
:----------------------|---------------------|------------/16-15~~~--20-20-20-20-20-19~~|
:----------------------|---------------------|------------/15-14~~~--19-19-19-19-19-18~~|
:-/8~~~~~--5~~~~-4~~~~-|-8888-7777-5555-4~~~-|8888-7~~~~--------------------------------|
:----------------------|---------------------|------------------------------------------|
:----------------------|---------------------1------------------------------------------|



:----------------------------------------|
:----------------------------------------|
:----------------------------------------|
:----------------------------------------|
:-----------1--------0-----0-1/4-4-4-1-0-|
:--00-00-00-1-00-1-0-00-00-0-1/4-4-4-1-0-|

gt1
:---------------------------------------|
:---------------------------------------|
:---------------------------------------|
:---------------------------------------|
:------------1--------0-----0--3-2-2-1-0|
:---00-00-00-1-00-1-0-00-00-0--3-2-2-1-0|


  repeat this part
:----------------------------------|-----------|
:----------------------------------|-----------|
:----------------------------------|-----------|
:----------------------------------|-----------|
:-5~~~~-8-7~~~-7-6~~~-6-5~~~-------|-8-7-8-10--|
:----------------------------------|-----------|


:----------------------------------------|
:----------------------------------------|
:----------------------------------------|
:----------------------------------------|
:-----------1--------0-----0-1/4-4-4-1-0-|
:--00-00-00-1-00-1-0-00-00-0-1/4-4-4-1-0-|


:----------------------------------------|
:----------------------------------------|
:----------------------------------------|
:----------------------------------------|
:-----------1--------0-----0-1/4-4-4-1-0-|
:--00-00-00-1-00-1-0-00-00-0-1/4-4-4-1-0-|


                             play 3 times
:--------------------------|-------------------------------|
:--------------------------|-------------------------------|
:--------------------------|-------------------------------|
:-7-7--7-8----7-8-11-------|-7-7--7-8----7-8----7-8-11-10--|
:-0-5--0-6-0--5-6-9--8h9p8-|-0-5--0-6-0--5-6-0--5-6-9--8---|
:-0-0--0-0-0--0------------|-0-0--0-0-0--0-0-0--0----------|



:--------------------------------------------------------------------------------|
:--------------------------------------------------------------------------------|
:--------------------------------------------------------------------------------|
:--------------------------------------------------------------------------------|
:0-0-0-0--5h8p5h8p5h8p5-0-0-0-0--5h6p5h6p5-0-0-0-0--3h6p3h6p3-0-0-0-0--3h4p3h4p3-|
:0-0-0-0----------------0-0-0-0------------0-0-0-0------------0-0-0-0------------|



:--------------------------------------------------------------------------------|
:--------------------------------------------------------------------------------|
:--------------------------------------------------------------------------------|
:--------------------------------------------------------------------------------|
:0-0-0-0--5h8p5h8p5h8p5-0-0-0-0--5h6p5h6p5-0-0-0-0--3h6p3h6p3-0-0-0-0--3h4p3h4p3-|
:0-0-0-0----------------0-0-0-0------------0-0-0-0------------0-0-0-0------------|


:--------------------------------------------------------------------------------|
:--------------------------------------------------------------------------------|
:--------------------------------------------------------------------------------|
:--------------------------------------------------------------------------------|
:0-0-0-0--5h8p5h8p5h8p5-0-0-0-0--5h6p5h6p5-0-0-0-0--3h6p3h6p3-0-0-0-0--3h4p3h4p3-|
:0-0-0-0----------------0-0-0-0------------0-0-0-0------------0-0-0-0------------|


:--------------------------------------------|
:--------------------------------------------|
:--------------------------------------------|
:--------------------------------------------|
:0-0-0-0--0-0-0-0--0-0-0-0--0-0-0-0--0-0-0-0-|
:0-0-0-0--0-0-0-0--0-0-0-0--0-0-0-0--0-0-0-0-|



im not sure if this is right   
:-------------------------------------------------------------------------------------------|
:-------------------------------------------------------------------------------------------|
:-------------------------------------------------------------------------------------------|
:-------------------------------------------------------------------------------------------|
:-2/4-0-(0)-/-3-6-5-3-1-(1)-0-1/3-6-5-3-1-(1)-0-1/3-6-5-3-1-2-5-4-2-0-1-(1)-0-3-6-5-3-1-(1)-|
:-2/4-0-(0)-/-3-6-5-3-1-(1)-0-1/3-6-5-3-1-(1)-0-1/3-6-5-3-1-2-5-4-2-0-1-(1)-0-3-6-5-3-1-(1)-|



:--------------|
:--------------|
:--------------|
:--------------|
:0-1/2-5-4-2-0-|
:0-1/2-5-4-2-0-|


repeat 3 times
:-----------------------|
:-----------------------|
:-----------------------|
:-----------------------|
:0-----0-----0-3\2-2\1--|
:0-0-0-0-0-0-0-3\2-2\1--|


under the solo 2
:-------------------------|
:-------------------------|
:-------------------------|
:-------------------------|
:1p0--0-1--0-1--0-1/4-4-4-|
:1p0--0-1--0-1--0-1/4-4-4-|


:-------------------------|
:-------------------------|
:-------------------------|
:-------------------------|
:1p0--0-1--0-1--0-1/4-4-3-|
:1p0--0-1--0-1--0-1/4-4-3-|


:-------------------------|
:-------------------------|
:-------------------------|
:-------------------------|
:1p0--0-1--0-1--0-1/4-4-4-|
:1p0--0-1--0-1--0-1/4-4-4-|


:----------------------------|
:----------------------------|
:----------------------------|
:----------------------------|
:1p0--0-1--0-1--0-1/4-4-4-4-4|
:1p0--0-1--0-1--0-1/4-4-4-4-4|


solo 2
:------------------------------------------------------------------------------------|
:-------------------------------19~~~~--20-17~~~-19-17-16~~~-19-17-16----------------|
:2/9\2-3/11/3-5/14\5-7/16\7-7/----------------------------------------17-16~~~---/19-|
:------------------------------------------------------------------------------------|
:------------------------------------------------------------------------------------|
:------------------------------------------------------------------------------------|


:---------------------------------------------------------------------------|
:18-19-21-19-18-------------------------------------------------------------|
:---------------21-18-19-21-19-18-------------------------------------------|
:---------------------------------20-17-18-20-18-17-------------------------|
:---------------------------------------------------20~~~~--18-17---12-14-15|
:---------------------------------------------------------------------------|


:----------------------------------19-20-19-19b-|               me 
ahorco oigame!
:-----------------------------------------------|               me 
ahorco oigame!
:------------12-14-15/18--(18b~~~)--------------|               pero me 
ahorco oigame! 
:12-14-15-15------------------------------------|               pero 
como!     
:-----------------------------------------------|               
:-----------------------------------------------|               ELOY 
GAMENO





Comments


Popular Slayer tabs & chords
Overt Enemy 2 Bass Tabs
Bitter Piece Tabs
Bloodline (Intro Ver 2) Tabs
Bloodline (Intro Ver 3) Tabs
In The Name Of God 2 Tabs
Rainging Blood Tabs
Raining Blood 2 Tabs
Revenge Tabs
Sick Boy Tabs
Skeleton Christ Tabs


Song lyrics



↑ Back to top | Tablatures and chords are parodies/interpretations of the original songs. You may use it for private study, scholarship, research or language learning purposes only
© 2014 AZChords.com Contact us | Privacy policy | DMCA | Add/correct tabs | Request tabs | Top 50 tabs