>
 >
Divine Intervention (Solo)

Divine Intervention (Solo) Guitar Tabs

Slayer - Divine Intervention (Solo) chords, tabs, tablatures, lyrics

Guitar lessons | Add/correct | Request | Top 50 tabs Artists:  A B C D E F G H I J K L M N O P Q R S T U V W X Y Z 0-9

Divine Intervention (Solo) Guitar Tabs – Slayer

CD, Sheet music, Poster

Do you like Divine Intervention (Solo)? Share with your friends now
Tabs
solo 1
eb:--------------------------------------------3-6-4-3----------------------------------|
Bb:----------------------------------3-4-6-4-6----------6-4-3---------------------------|
Gb:-----------------------2-3-2-3-5----------------------------5-3-2--------------5~~~--|
Db:-------------2-3-2-3-5---------------------------------------------5-3-2~~~----------|
Ab:-2~~~--2-3-5-------------------------------------------------------------------------|
Eb:-------------------------------------------------------------------------------------|

eb:----------------------------------------------------------------------|
Bb:-11-11-10-11--12-12-11-12--14-14-12-14--16-16-14-16-16-17---17b--17\--|
Gb:------------------------------------------------------------15b--15\--|
Db:----------------------------------------------------------------------|
Ab:----------------------------------------------------------------------|
Eb:----------------------------------------------------------------------|



solo 2
eb:------------------------------------------------------9-10-12-10-9-----------------|
Bb:------------------------------------12~~~--12b~~~~~----------------12-10-9---------|
Gb:--------------------------12-13-15-----------------------------------------12-10-9-|
Db:-----------------12-13-15----------------------------------------------------------|
Ab:-7--------12-15--------------------------------------------------------------------|
Eb:-9---7~~~--------------------------------------------------------------------------|
            pm. .   .   .  .



eb:-----------------------------------------------------------------|
Bb:--------------------------------------9AH-----------------9AH----|
Gb:----------------------------------------------------9------------|
Db:-11-9-8-----------------------------------------------8b---------|
Ab:--------7-8-7-8-10-8-7------------7b-------------7---------------|
Eb:-----------------------10-8-7b~~~---------7-8-10-----------------|



eb:-----------------------------12------------------------12---|
Bb:----------------------12~~~------12b-12b-12b--12-13-15------|
Gb:---------9~~~-9-10-12---------------------------------------|
Db:-9-10-12----------------------------------------------------|
Ab:------------------------------------------------------------|
Eb:------------------------------------------------------------|



    3 times
eb:----19-22-19-|---------------------------------------------|
Bb:-21----------|-21-19-18------------------------------------|
Gb:-------------|----------21-19-18---------------------------|
Db:-------------|-------------------20-18-17------------------|
Ab:-------------|----------------------------20-18-17---------|
Eb:-------------|-------------------------------------20-17\--|


solo 3
eb:12-13-12-13-12-13-15-13-12---------------------------------------------------------------|
Bb:---------------------------15-13-12-13-12-15-13-12---------------------------------------|
Gb:---------------------------------------------------15-13-12-13-12-11-12-11-12-11-14-12-11|
Db:-----------------------------------------------------------------------------------------|
Ab:-----------------------------------------------------------------------------------------|
Eb:-----------------------------------------------------------------------------------------|


eb:----------------------------------------------------------------------|
Bb:----------------------------------------------------------------------|
Gb:---------11-----------------------------------------------------------|
Db:14-12-14----14-12-11-12-11-12-14-12-11---------11---------------------|
Ab:--------------------------------------14-12-14----14-12-11-12-11-12---|
Eb:----------------------------------------------------------------------|



                           2 times          bend full--------
eb:----------------------|-------------|--------------------------|
Bb:----------------------|-------------|--7-8-10-10b-10-10-10-10\-|
Gb:----------------------|-7-8-9-7-8-9-|--------------------------|
Db:-----------7-8-7-8-10-|-------------|--------------------------|
Ab:-8-7-8-10-------------|-------------|--------------------------|
Eb:----------------------|-------------|--------------------------|


      bar                                    bar
eb:-----------------------------------------------------------------------------------|
Bb:-----------------------------------------------------------------------------------|
Gb:-2~~~--2-3-2-3-5-2-3---------------------------------------------------------------|
Db:---------------------5-3-2-3-2-5-3-2-----------------------------------------------|
Ab:-------------------------------------5-3-2b----------------------12-13-14-12-13-14-|
Eb:-----------------------------------------------12-13-15-12-13-15-------------------|

eb:---------------------------------------------------------------------------------|
Bb:------------------------------------12-13-15-12-13-15----------12-13-15-12-13-15-|
Gb:------------------12-13-15-12-13-15-------------------15-13-12-------------------|
Db:12-13-14-12-13-14----------------------------------------------------------------|
Ab:---------------------------------------------------------------------------------|
Eb:---------------------------------------------------------------------------------|


eb:-12-13-15-------17b---22b-|
Bb:----------17b-------------|
Gb:--------------------------|
Db:--------------------------|
Ab:--------------------------|
Eb:--------------------------|



solo 4
eb:-21b-21b-21b-21-21-21-19-19-22-22-21-21-19--------------------------------------------|
Bb:-------------------------------------------22-19-21-22-21-19--------------------------|
Gb:-------------------------------------------------------------22-21-19-----------------|
Db:----------------------------------------------------------------------21b-21b-21b-21b-|
Ab:--------------------------------------------------------------------------------------|
Eb:--------------------------------------------------------------------------------------|


eb------------------------------------------------------------------------------------------|
Bb------------------------------------------------------------------------------------------|
Gb21\-21b-21b-21b-21b-21\--------------------------------------------------12-13-15-12-13-15|
Db-------------------------------------------------------12-13-15-12-13-15------------------|
Ab------------------------12-12-13-13-15-13-12-15-13-12-------------------------------------|
Eb------------------------------------------------------------------------------------------|

eb:----------------------------------------------|
Bb:12-13-15-13-12--------------------------------|
Gb:---------------15b-14AH~~~~-15~~~---(15)------|
Db:----------------------------------------------|
Ab:----------------------------------------------|
Eb:-----------------------------------------19\--|


solo 5
eb:------*--------*--------*----------*----------*----------*----------------------*12-13-15-|
Bb:------*--------*--------*----------*----------*----------*---------------17b----*---------|
Gb:------*--------*--------*----------*----------*----------*-14--17-15-14--16b-16b*---------|
Db:------*--------*--------*----------*----------*-14-15-17-*----------------------*---------|
Ab:-5-6-8*-7-8-10-*-9-10-12*-11-12-14-*-14-15-17-*----------*----------------------*---------|
Eb:------*--------*--------*----------*----------*----------*----------------------*---------|

  2 times 2 times  2 times 2 times    2 times
2times                           2 times

eb:13-14-16*-14-15-17-18-16-18-16-17-19-17-18-20-17-21-17-20b-20b-20b-20b-20b-20b-|
Bb:--------*----------------------------------------------------------------------|
Gb:--------*----------------------------------------------------------------------|
Db:--------*----------------------------------------------------------------------|
Ab:--------*----------------------------------------------------------------------|
Eb:--------*----------------------------------------------------------------------|

   2 times

eb:-22b-22b-22b-*-18b-----------15-12-13-15-13-12-------------------------------------*
Bb:-------------*------17b------------------------15-12-13-15-13-12-------------------*
Gb:-------------*---------------------------------------------------14-11-12-14-12-11-*
Db:-------------*---------------------------------------------------------------------*
Ab:-------------*-----------16\-------------------------------------------------------*
Eb:-------------*---------------------------------------------------------------------*

   2 times

eb:-----------------------------------------------*
Bb:-----------------------------------------------*
Gb:-----------------------------------------------*
Db:-14-11-12-14-12-11-----------------------------*
Ab:-------------------14-11-12-14-12-11---------2-*
Eb:--------------------------------------17\----0-*





Comments


Popular Slayer tabs & chords
Deaths Head 2 Bass Tabs
Here Comes The Pain Bass Tabs
Metal Storm Bass Tabs
Necrophobic Bass Tabs
Overt Enemy 2 Bass Tabs
Perversion Of Pain Bass Tabs
Show No Mercy Bass Tabs
213 1 Tabs
Jesus Saves 2 Tabs
Seasons In The Abyss 1 Tabs


Song lyrics



↑ Back to top | Tablatures and chords are parodies/interpretations of the original songs. You may use it for private study, scholarship, research or language learning purposes only
© 2014 AZChords.com Contact us | Privacy policy | DMCA | Add/correct tabs | Request tabs | Top 50 tabs