>
 >
Criminally Insane

Criminally Insane Guitar Tabs

Slayer - Criminally Insane chords, tabs, tablatures, lyrics

Guitar lessons | Add/correct | Request | Top 50 tabs Artists:  A B C D E F G H I J K L M N O P Q R S T U V W X Y Z 0-9

Criminally Insane Guitar Tabs – Slayer

CD, Sheet music, Poster

Do you like Criminally Insane? Share with your friends now
Bass TabsDrum TabsTabsTabs v2Tabs v3
fig. 1 (play 2 times) : 
Eb:-----------------------------------------------| 
Bb:-----------------------------------------------| 
Gb:-----------------------------------------------| 
Db:-----------------------------------------------| 
Ab:-2-----------5------------2----------5---------| 
Eb:-2--2--2--2-----2--2--2---2--2--2--2---2--2--2-| 
 
 
   fig. 2 : 
Eb:------------------------------------------------| 
Bb:------------------------------------------------| 
Gb:------------------------------------------------| 
Db:------------------------------------------------| 
Ab:-3-----------6------------3-----------6---------| 
Eb:-3--3--3--3-----3--3--3---3--3--3--3----3--3--3-| 
 
 
 play fig 1  
 play fig 2  
 play fig 1 (2 times) 
 
 
  fig 3 (play 3 times) : 
Eb:----------------------------------------------------| 
Bb:----------------------------------------------------| 
Gb:----------------------------------------------------| 
Db:----------------------------------------------------| 
Ab:-2------------3------------3--5---------5--6--------| 
Eb:-0--0--0--0---1--0--0--0---1--3--0--0---3--4--0--0--| 
 
 
  fig 4: 
Eb:------------------------------------------------------| 
Bb:------------------------------------------------------| 
Gb:------------------------------------------------------| 
Db:------------------------------------------------------| 
Ab:-2------------3------------3--5---------5--6----------| 
Eb:-0--0--0--0---1--0--0--0---1--3---------3--4----------| 
 
 
  fig 5 (play 5 times) : 
Eb:-----------------------------------|---------------------------------| 
Bb:-----------------------------------|---------------------------------| 
Gb:-----------------------------------|---------------------------------| 
Db:-----------------------------------|---------------------------------| 
Ab:-2----------------3----------------|-3---5------------4--6-----------| 
Eb:-0--0-0--0-0-0-0--1--0-0--0-0-0-0--|-1---3---0-0-0-0--3--4--0-0-0-0--| 
 
 
  fig 6 (play 4 times) : 
Eb:------------------------------------|------------------------------------| 
Bb:------------------------------------|------------------------------------| 
Gb:------------------------------------|------------------------------------| 
Db:------------------------------------|------------------------------------| 
Ab:------------------------------------|------------------------------------| 
Eb:-1-1-1-1--1-1-1-1--1-1-1-1--2-2-2-2-|-2-2-2-2--4-4-4-4--5-5-5-5--0-0-0-0-| 
								    ^ ^ ^ ^ 
								   don't play 
								   4th time 
 
Eb:-------------------------------|-----------------------------| 
Bb:-------------------------------|-----------------------------| 
Gb:-------------------------------|-----------------------------| 
Db:-------------------------------|-----------------------------| 
Ab:-2-----------------------------|----2--5---------4-6---------| 
Eb:-0-----------------------------|----0--3---------3-4---------| 
	(dive w/bar)	 
 
  play fig 5 (4 times, last time without last beat )  
    
 
Eb:--------------------------------| 
Bb:--------------------------------| 
Gb:--------------------------------| 
Db:--------------------------------| 
Ab:-2--3--5--5---------5-----------| 
Eb:-0--1--3--3---------3-----------| 
 
 
  fig 7 (play 6 times) : 
Eb:-------------------------------------|----------------------------------| 
Bb:-------------------------------------|----------------------------------| 
Gb:-------------------------------------|----------------------------------| 
Db:-------------------------------------|----------------------------------| 
Ab:-------------------------------------|-3--5-------------4--6------------| 
Eb:-1-1-1-1--1-1-1-1--0-0-0-0--0-0-0-0--|-1--3---0-0-0-0---3--4---0-0-0-0--| 
 
 
  play fig 6 (4 times) 
 
 
Eb:-------------------------------------| 
Bb:-------------------------------------| 
Gb:-------------------------------------| 
Db:-------------------------------------| 
Ab:-2-----------------------------------| 
Eb:-0-----------------------------------| 
 
 
   fig 8 (play 8 times) : 
Eb:----------------------------------|	 (from 5th time gtr II plays fig 8  
Bb:----------------------------------| 	 one octave higher) 
Gb:----------------------------------| 
Db:----------------------------------| 
Ab:------------------2-1-------2-1---| 
Eb:--0-3-2-0-3-2-0-3-----2-0-3-----2-| 
 
  play fig 3 (4 times) 
  play fig 4 
  play fig 5 (3 times)  
 
Eb:---------------------------------|--------------------------------| 
Bb:---------------------------------|--------------------------------| 
Gb:---------------------------------|--------------------------------| 
Db:---------------------------------|--------------------------------| 
Ab:-2---------------3---------------|-3---5-----------5--6-----------| 
Eb:-0--0-0--0-0-0-0-1--0-0--0-0-0-0-|-1---3-----------3--4-----------| 
 


solo 1 
eb:16b-16b-16-19-16-19----16-19b-19-16h19p16----------------------------------------| 
Bb:19b-19b-------------19--------------------19-16-17-16----------------------------| 
Gb:------------------------------------------------------18-15-14-15----------------| 
Db:------------------------------------------------------------------18-15-14-15----| 
Ab:------------------------------------------------------------------------------18-| 
Eb:---------------------------------------------------------------------------------| 
 
 
 
 
eb:---------------------------------------------11-12-14--------------------| 
Bb:-----------------------------9-12NH--9-10-12----------12-10-9-10---------| 
Gb:---------------------9-11-12--------------------------------------12-10b-| 
Db:-------------9-11-12-----------------------------------------------------| 
Ab:-----9-10-12-------------------------------------------------------------| 
Eb:9-12---------------------------------------------------------------------| 
 
 
 
solo 2 
:-------------------------------------13-14-16--15-16-18--22b--22b-19-20-19-| 
:------------------10-11-13--13-14-16---------------------------------------| 
:---------10-11-13----------------------------------------------------------| 
:10-11-13-------------------------------------------------------------------| 
:---------------------------------------------------------------------------| 
:---------------------------------------------------------------------------| 
 
 
                                                                      
pm... 
:--------------------------------------------------------------------------| 
:22-19-22b-22-19-20-19-----------------------------------------------------| 
:----------------------21-18-19-18-----------------------------------------| 
:----------------------------------21-19-18-19-----------------------3-4-6-| 
:----------------------------------------------21-19-18-19-----------------| 
:----------------------------------------------------------21-19-18--------| 
 
 
 
:-------------------------------------------------------------------------| 
:-------------------------------------------------------------------------| 
:----------------------1-1-1-1h2p1-2-2-2-2h3p2-3-3-3-3h4p3-5-5-5-5h6p5-7-7| 
:-------------------------------------------------------------------------| 
:6-3-4-3--6-4-3-----------------------------------------------------------| 
:---------------6-3~~~----------------------------------------------------| 
 
 
 
eb:------------------------------------------------------------| 
Bb:------------------------------------------------------------| 
Gb:7-7h8-7-9-9-9-9h10p9-11-11-11-11h12p11-13-13-13-13-13h14p13-| 
Db:------------------------------------------------------------| 
Ab:------------------------------------------------------------| 
Eb:------------------------------------------------------------| 
 
 
                                                          bar 
eb:--------------------------------------------------------------| 
Bb:--------------------------------------------------------------| 
Gb:15-15-15-15-15h16p15-17-17-17-17-17h18p17--20b~~~------2b-----| 
Db:--------------------------------------------------------------| 
Ab:--------------------------------------------------------------| 
Eb:--------------------------------------------------------------|





Comments


Popular Slayer tabs & chords
Black Magic 3 Bass Tabs
Bloodline Bass Tabs
Can't Stand You Bass Tabs
I Dont Want To Hear It Bass Tabs
At Dawn They Sleep Tabs
Blood Red 2 Tabs
Cult 1 Tabs
Dracula 2001 Soundtrack Tabs
Rainging Blood Tabs
What Were All About Tabs


Song lyrics



↑ Back to top | Tablatures and chords are parodies/interpretations of the original songs. You may use it for private study, scholarship, research or language learning purposes only
© 2014 AZChords.com Contact us | Privacy policy | DMCA | Add/correct tabs | Request tabs | Top 50 tabs