>
 >
Circle Of Beliefs

Circle Of Beliefs Guitar Tabs

Slayer - Circle Of Beliefs chords, tabs, tablatures, lyrics

Guitar lessons | Add/correct | Request | Top 50 tabs Artists:  A B C D E F G H I J K L M N O P Q R S T U V W X Y Z 0-9

Circle Of Beliefs Guitar Tabs – Slayer

CD, Sheet music, Poster

Do you like Circle Of Beliefs? Share with your friends now
Tabs

Riff 1 
|--------------------------------------------------- 
|--------------------------------------------------- 
|--------------------------------------------------- 
|--4\5-5-5-5\4-4-4-4\8-8-8-8\5-5-5-4\5-5-5-5\4-4-4-- 
|--4\5-5-5-5\4-4-4-4\8-8-8-8\5-5-5-4\5-5-5-5\4-4-4-- 
|--2\3-3-3-3\2-2-2-2\6-6-6-6\3-3-3-2\3-3-3-3\2-2-2-- 
 
 
|------------------- 
|------------------- 
|------------------- 
|--4\8-8-8-8\7-7-7-- 
|--4\8-8-8-8\7-7-7-- 
|--2\6-6-6-6\5-5-5-- 
 
 
[last ending, before first solo break] 
|------------------- 
|------------------- 
|------------------- 
|--4\7-7-7-7-7-7-7-- 
|--4\7-7-7-7-7-7-7-- 
|--2\5-5-5-5-5-5-5-- 
 
 
Riff 2 
|--------------------------------------------------- 
|--------------------------------------------------- 
|--------------------------------------------------- 
|--5\6-6-6-6\5-5-5-5\9-9-9-9\6-6-6-5\6-6-6-6\5-5-5-- 
|--5\6-6-6-6\5-5-5-5\9-9-9-9\6-6-6-5\6-6-6-6\5-5-5-- 
|--3\4-4-4-4\3-3-3-3\7-7-7-7\4-4-4-3\4-4-4-4\3-3-3-- 
 
 
|------------------- 
|------------------- 
|------------------- 
|--5\9-9-9-9\8-8-8-- 
|--5\9-9-9-9\8-8-8-- 
|--3\7-7-7-7\6-6-6-- 
 
 
[last ending] 
|------------------- 
|------------------- 
|------------------- 
|--5\9-9-9-8---7---- 
|--5\9-9-9-8---7---- 
|--3\7-7-7-6---5---- 
 
 
Riff 3 
|----------------------------------------------------- 
|----------------------------------------------------- 
|----------------------------------------------------- 
|--8---------------7---------------5---------------7-- 
|--8---------------7---------------5---------------7-- 
|--6-000000000056785-000000000056783-000000000056785-- 
   |__||__||__||__||__||__||__||__||__||__||__||__||__ 
 
|------------------ 
|------------------ 
|------------------ 
|------------------ 
|------------------ 
|--00000000000000-- 
   _||__||__||__| 
 
Riff 4 
|------------------------------------------------------------- 
|------------------------------------------------------------- 
|------------------------------------------------------------- 
|--8-------7-------5-------5-------8-------7-------5-------7-- 
|--8-------7-------5-------5-------8-------7-------5-------7-- 
|--6---00005---00003---00005---00006---00005---00003---00005-- 
   |__||__||__||__||__||__||__||__||__||__||__||__||__||__||__ 
 
 
|------------------------------------------------------------- 
|------------------------------------------------------------- 
|--8-------7-------5-------5-------8-------7-------5-------7-- 
|--8-------7-------5-------5-------8-------7-------5-------7-- 
|--6---00005---00003---00005---00006---00005---00003---00005-- 
|------------------------------------------------------------- 
   |__||__||__||__||__||__||__||__||__||__||__||__||__||__| 
 
Riff 5 
|----------------------------------- 
|----------------------------------- 
|----------------------------------- 
|--3-------------------2-3---5-4-3-- 
|--3-------------------2-3---5-4-3-- 
|--1-0000000000000000000-1-0-3-2-1-- 
   |__||__||__||__||__|| 
 
 
|----------------------------------- 
|----------------------------------- 
|----------------------------------- 
|--3-------------------2-3---6-5-4-- 
|--3-------------------2-3---6-5-4-- 
|--1-0000000000000000000-1-0-4-3-2-- 
   |__||__||__||__||__|| 
 
 
Riff 6 
|--------------------------------------------------------- 
|--------------------------------------------------------- 
|--------------------------------------------------------- 
|----------6-----------4-----------6-----------3---2---1-- 
|----------6-----------4-----------6-----------3---2---1-- 
|--111111114---111111112---111111114---11111111----------- 
   |__||__||__||__||__||__||__||__||__||__||__| 
 
 
Riff 7 
|----------------------------------------------------- 
|----------------------------------------------------- 
|----------------------------------------------------- 
|--4---------------2---------------3---------------4-- 
|--4---------------2---------------3---------------4-- 
|----22222222223-2---22222222223-2---22222222223-2---- 
   |__||__||__||__||__||__||__||__||__||__||__| 
 
 
|------------------ 
|------------------ 
|------------------ 
|------------------ 
|------------------ 
|--22222222222222-- 
   _||__||__||__| 
 
[last ending] 
|------------------ 
|------------------ 
|--------5-4-3----- 
|--------5-4-3----- 
|--------3-2-1----- 
|--222222---------- 
   _||__| 
 
Riff 8 [first solo break] 
|----------------------------------- 
|----------------------------------- 
|--3-------------------2-3---5-4-3-- 
|--3-------------------2-3---5-4-3-- 
|--1-0000000000000000000-1-0-3-2-1-- 
|----------------------------------- 
   |__||__||__||__||__|| 
 
 
|----------------------------------- 
|----------------------------------- 
|--3-------------------2-3---6-5-4-- 
|--3-------------------2-3---6-5-4-- 
|--1-0000000000000000000-1-0-4-3-2-- 
|----------------------------------- 
   |__||__||__||__||__|| 
 
 
Riff 9 [second solo break] 
|------------------------------------ 
|------------------------------------ 
|------------------------------------ 
|------------------------------------ 
|------------------------------------ 
|--6-7-77777-6-66666666666666666666-- 
   |__||__||__||__||__||__||__||__| 
 
 
|--------------------------------------- 
|--------------------------------------- 
|--------------------------------------- 
|--------------------------------------- 
|--------------------------------------- 
|--6-10-10===10-7-77777777777777777777-- 
   |___|| __|| __||__||__||__||__||__| 
 
|------------------------------------ 
|------------------------------------ 
|------------------------------------ 
|------------------------------------ 
|------------------------------------ 
|--6-7-77777-6-66666666666666666666-- 
   |__||__||__||__||__||__||__||__| 
 
[1st half ending] 
|--------------------------------------- 
|--------------------------------------- 
|--------------------------------------- 
|--------------------------------------- 
|--------------------------------------- 
|--6-10-10===10-9-99999999999999999999-- 
   |___|| __|| __||__||__||__||__||__| 
 
[2nd half - same as above, but 1/2 step higher] 
 
[2nd half ending] 
|------------------------------ 
|------------------------------ 
|------------------------------ 
|------10-------9-------7---8-- 
|------10-------9-------7---8-- 
|--00008----00007---00005---6-- 
 
 
Riff 10 
|--------------------------------------------------- 
|--------------------------------------------------- 
|--------------------------------------------------- 
|--------------5---------------6---------------5---- 
|--------------5---------------6---------------5---- 
|--0-0-0-0-5678--0-0-0-0-0-5678--0-0-0-0-0-5678--0-- 
 
 
|------------------------- 
|------------------------- 
|------------------------- 
|------6-------8-------7-- 
|------6-------8-------7-- 
|--5678--0-56786---56785-- 
 
 
Riff 11 
|--------------------------------------------------- 
|--------------------------------------------------- 
|--------------------------------------------------- 
|--2-3-------2-4-5-----------------2-3-------2-4-5-- 
|--2-3-------2-4-5-----------------2-3-------2-4-5-- 
|--0-1-0-0-0-0-2-3-0-0-0-0-0-0-0-0-0-1-0-0-0-0-2-3-- 
 
 
|------------------- 
|------------------- 
|------------------- 
|------------------- 
|------------------- 
|--2-2-2-2-2-2-2-2-- 
 
[second ending] 
|------------------- 
|------------------- 
|------------------- 
|----------3-2-5-4-- 
|----------3-2-5-4-- 
|--2-2-2-2-1-0-3-2-- 
 
 
Riff 12 
|--------------------------------------------------- 
|--------------------------------------------------- 
|--------------------------------------------------- 
|--------------------------------------------------- 
|------------3-----------3-------1-----------3------ 
|--0-0-0-0-4---2-1-0-0-4---2-1-2---0-0-0-0-4---2-1-- 
 
 
|------------------- 
|------------------- 
|------------------- 
|------------------- 
|--------1-0-----1-- 
|--0-0-2-----1-2---- 
 
 
Riff 13 
|-------------------------------------------- 
|-------------------------------------------- 
|--12\11-----13\11-----14\11-----15\11------- 
|--12\11-----13\11-----14\11-----15\11------- 
|--10\*9-999911\*9-999912\*9-999913\*9-9999-- 
|-------------------------------------------- 
 
 
Riff 14 [third solo break] 
|---------------------------------- 
|---------------------------------- 
|------------------6-----5-----4--- 
|--6-5-------------6-----5-----4--- 
|--6-5-------------4-----3-----2--- 
|--4-3-333333333333--3-3---3-3----- 
 
 
Riff 15 [ending] 
|----------------------------------- 
|----------------------------------- 
|----------------------------------- 
|------6-------5-----------5--4--3-- 
|------6-------5-----------5--4--3-- 
|--00004---00003---000000003--2--1--





Comments


Popular Slayer tabs & chords
Im Gonna Be Your God Bass Tabs
Die By The Sword Drum Tabs
Bloodline 4 Tabs
Evil Has No Boundries Tabs
Expendable Youth Tabs
Guilty Of Being.... Tabs
I'm Gonna Be Your God Tabs
Spill The Blood Tabs
The Antichrist Tabs
The Antichrist 2 Tabs


Song lyrics



↑ Back to top | Tablatures and chords are parodies/interpretations of the original songs. You may use it for private study, scholarship, research or language learning purposes only
© 2014 AZChords.com Contact us | Privacy policy | DMCA | Add/correct tabs | Request tabs | Top 50 tabs