>
 >
Born To Be Wild

Born To Be Wild Guitar Tabs

Slayer - Born To Be Wild chords, tabs, tablatures, lyrics

Guitar lessons | Add/correct | Request | Top 50 tabs Artists:  A B C D E F G H I J K L M N O P Q R S T U V W X Y Z 0-9

Born To Be Wild Guitar Tabs – Slayer

CD, Sheet music, Poster

Do you like Born To Be Wild? Share with your friends now
Bass TabsTabs
Born To Be wild



slayer








eb:--------------------------------------|
Bb:--------------------------------------|
Gb:--------------------------------------|
Db:--------------------------------------|
Ab:-2-2-2-2--2-2-2-2--2-2-2-2--2-2--0----|
Eb:-0-0-0-0--0-0-0-0--0-0-0-0--0-0--3--5-|


eb:--------------------------------------|
Bb:--------------------------------------|
Gb:--------------------------------------|
Db:--------------------------------------|
Ab:-2-2-2-2--2-2-2-2--2-2-2-2--2-2--0----|
Eb:-0-0-0-0--0-0-0-0--0-0-0-0--0-0--3--5-|


eb:--------------------------------------|
Bb:--------------------------------------|
Gb:--------------------------------------|
Db:--------------------------------------|
Ab:-2-2-2-2--2-2-2-2--2-2-2-2--2-2--5--7-|
Eb:-0-0-0-0--0-0-0-0--0-0-0-0--0-0--3--5-|


eb:------------------------------------------------------|
Bb:------------------------------------------------------|
Gb:------------------------------------------------------|
Db:------------------------------------------------------|
Ab:-2-2-2-2--2-2-2-2--2-2-2-2--2-2-2-2-2-2-2-2-2-2--5--7-|
Eb:-0-0-0-0--0-0-0-0--0-0-0-0--0-0-0-0-0-0-0-0-0-0--3--5-|

verse
eb:--------------------------------------|
Bb:--------------------------------------|
Gb:--------------------------------------|
Db:--------------------------------------|
Ab:-2-2-2-2--2-2-2-2--2-2-2-2--2-2--0----|
Eb:-0-0-0-0--0-0-0-0--0-0-0-0--0-0--3--5-|


eb:--------------------------------------|
Bb:--------------------------------------|
Gb:--------------------------------------|
Db:--------------------------------------|
Ab:-2-2-2-2--2-2-2-2--2-2-2-2--2-2--5--7-|
Eb:-0-0-0-0--0-0-0-0--0-0-0-0--0-0--3--5-|

eb:--------------------------------------|
Bb:--------------------------------------|
Gb:--------------------------------------|
Db:--------------------------------------|
Ab:-2-2-2-2--2-2-2-2--2-2-2-2--2-2--0----|
Eb:-0-0-0-0--0-0-0-0--0-0-0-0--0-0--3--5-|

eb:------------------------------------------------------|
Bb:------------------------------------------------------|
Gb:------------------------------------------------------|
Db:------------------------------------------------------|
Ab:-2-2-2-2--2-2-2-2--2-2-2-2--2-2-2-2-2-2-2-2-2-2--5--7-|
Eb:-0-0-0-0--0-0-0-0--0-0-0-0--0-0-0-0-0-0-0-0-0-0--3--5-|


eb:---------------------------|
Bb:---------------------------|
Gb:---------------------------|
Db:---------------------------|
Ab:--2---4---2-2-2-2--2-2-2-2-|
Eb:--3---5---0-0-0-0--0-0-0-0-|

eb:---------|
Bb:---------|
Gb:---------|
Db:---------|
Ab:--2---4--|
Eb:--3---5--|

eb:----|
Bb:----|
Gb:----|
Db:----|
Ab:--2-|
Eb:--0-|

verse
eb:--------------------------------------|
Bb:--------------------------------------|
Gb:--------------------------------------|
Db:--------------------------------------|
Ab:-2-2-2-2--2-2-2-2--2-2-2-2--2-2--0----|
Eb:-0-0-0-0--0-0-0-0--0-0-0-0--0-0--3--5-|


eb:--------------------------------------|
Bb:--------------------------------------|
Gb:--------------------------------------|
Db:--------------------------------------|
Ab:-2-2-2-2--2-2-2-2--2-2-2-2--2-2--5--7-|
Eb:-0-0-0-0--0-0-0-0--0-0-0-0--0-0--3--5-|

eb:--------------------------------------|
Bb:--------------------------------------|
Gb:--------------------------------------|
Db:--------------------------------------|
Ab:-2-2-2-2--2-2-2-2--2-2-2-2--2-2--0----|
Eb:-0-0-0-0--0-0-0-0--0-0-0-0--0-0--3--5-|

eb:------------------------------------------------------|
Bb:------------------------------------------------------|
Gb:------------------------------------------------------|
Db:------------------------------------------------------|
Ab:-2-2-2-2--2-2-2-2--2-2-2-2--2-2-2-2-2-2-2-2-2-2--5--7-|
Eb:-0-0-0-0--0-0-0-0--0-0-0-0--0-0-0-0-0-0-0-0-0-0--3--5-|

eb:---------------------------|
Bb:---------------------------|
Gb:---------------------------|
Db:---------------------------|
Ab:--2---4---2-2-2-2--2-2-2-2-|
Eb:--3---5---0-0-0-0--0-0-0-0-|

eb:---------|
Bb:---------|
Gb:---------|
Db:---------|
Ab:--2---4--|
Eb:--3---5--|

eb:----|
Bb:----|
Gb:----|
Db:----|
Ab:--2-|
Eb:--0-|

eb:-------------------------------------------------------------------------------|
Bb:-------------------------------------------------------------------------------|
Gb:-------------------------------------------------------------------------------|
Db:-------------------------------------------------------------------------------|
Ab:-2-2-2-2-2-2-2-2-2-2-2-2--2-2-2-2-2-2-2-2--4-4-4-4-4-4-4-4--2-2-2-2--2--2-2--2-|
Eb:-0-0-0-0-0-0-0-0-0-0-0-0--3-3-3-3-3-3-3-3--5-5-5-5-5-5-5-5--3-3-3-3--3--3-3--0-|


:--------------------------------------------------------------------------|
:--------------------------------------------------------------------------|
:--------------------------------------------------------------------------|
:--9/---------7/--------9/--------7/-------9/--------7/-------9/--------7/-|
:--7/---------5/--------7/--------5/-------7/--------5/-------7/--------5/-|
:--------------------------------------------------------------------------|


solo 1
:-21Bf-21Bf-21Bf-21Bf-21Bf-21Bf-21Bf--21-18-19-18-19-18-19-21-19-18------------------------|
:-------------------------------------------------------------------21-18-19-21-19-18-19-21|
:------------------------------------------------------------------------------------------|
:------------------------------------------------------------------------------------------|
:------------------------------------------------------------------------------------------|
:------------------------------------------------------------------------------------------|
   
:------------------------------------------------------------------------------------------|
:-19-18-19-18------------------------------------------------------------------------------|
:--------------20-17-18-20-18-17-18-17-20B~~-----------------------------------------------|
:---------------------------------------------------------------------14-16-14-16-17-16-17-|
:--------------------------------------------/14-14-16-14-16-17-16-17----------------------|
:------------------------------------------------------------------------------------------|

:--------------------------------------14-15-14-15-14-15-17-15-14-------------------------|
:-----------------14h17p14----14-15-17----------------------------17-14-15-17-15-14-------|
:-14-16-17-16-17-----------17-------------------------------------------------------16-14-|
:-----------------------------------------------------------------------------------------|
:-----------------------------------------------------------------------------------------|
:-----------------------------------------------------------------------------------------|

        Bar/      Bar/ / / / /                       Bar/     /    /     Bar/ /  /   /    /
:------5NH--------5NH----------------------20----------------------------------------5NH---|
:-17B--5NH--------5NH------------------/19----19~~~----------------------5NH--(5NH)--------|
:-16B-------------------------------------------------0------(0)---(0)---------------------|
:------------------------------------------------------------------------------------------|
:------------------------------------------------------------------------------------------|
:------------------------------------------------------------------------------------------|

wah
:------------------------------------------------------------------------------------------|
:------------------------------------------------------------------------------------------|
:----------------------0-----------------------------------------------------------14-16-14|
:----------4/----------------------------------------------------14-15-17-15-14-17---------|
:---0--/5--------9/----------------------------14-15-17-15-14-17---------------------------|
:---------------------------14-15-17--14-15-17---------------------------------------------|

:-------------------------------------------14-15-14-15-14-15-14-15-17-15-14-17-18-20-18-17|
:----------------14-15-14-15-17-15-14-15-17------------------------------------------------|
:-16-17-16-14-17---------------------------------------------------------------------------|
:------------------------------------------------------------------------------------------|
:------------------------------------------------------------------------------------------|
:------------------------------------------------------------------------------------------|

:-----------------------------------------|
:-20-17-18-20-18-17---------20B~~~~~~-----|
:-------------------20--17--19B~~~~~~-----|
:-----------------------------------------|
:-----------------------------------------|
:-----------------------------------------|


verse
eb:--------------------------------------|
Bb:--------------------------------------|
Gb:--------------------------------------|
Db:--------------------------------------|
Ab:-2-2-2-2--2-2-2-2--2-2-2-2--2-2--0----|
Eb:-0-0-0-0--0-0-0-0--0-0-0-0--0-0--3--5-|


eb:--------------------------------------|
Bb:--------------------------------------|
Gb:--------------------------------------|
Db:--------------------------------------|
Ab:-2-2-2-2--2-2-2-2--2-2-2-2--2-2--5--7-|
Eb:-0-0-0-0--0-0-0-0--0-0-0-0--0-0--3--5-|

eb:--------------------------------------|
Bb:--------------------------------------|
Gb:--------------------------------------|
Db:--------------------------------------|
Ab:-2-2-2-2--2-2-2-2--2-2-2-2--2-2--0----|
Eb:-0-0-0-0--0-0-0-0--0-0-0-0--0-0--3--5-|

eb:------------------------------------------------------|
Bb:------------------------------------------------------|
Gb:------------------------------------------------------|
Db:------------------------------------------------------|
Ab:-2-2-2-2--2-2-2-2--2-2-2-2--2-2-2-2-2-2-2-2-2-2--5--7-|
Eb:-0-0-0-0--0-0-0-0--0-0-0-0--0-0-0-0-0-0-0-0-0-0--3--5-|

eb:---------------------------|
Bb:---------------------------|
Gb:---------------------------|
Db:---------------------------|
Ab:--2---4---2-2-2-2--2-2-2-2-|
Eb:--3---5---0-0-0-0--0-0-0-0-|

eb:---------|
Bb:---------|
Gb:---------|
Db:---------|
Ab:--2---4--|
Eb:--3---5--|

eb:----|
Bb:----|
Gb:----|
Db:----|
Ab:--2-|
Eb:--0-|

eb:-------------------------------------------------------------------------------|
Bb:-------------------------------------------------------------------------------|
Gb:-------------------------------------------------------------------------------|
Db:-------------------------------------------------------------------------------|
Ab:-2-2-2-2-2-2-2-2-2-2-2-2--2-2-2-2-2-2-2-2--4-4-4-4-4-4-4-4--2-2-2-2--2--2-2--2-|
Eb:-0-0-0-0-0-0-0-0-0-0-0-0--3-3-3-3-3-3-3-3--5-5-5-5-5-5-5-5--3-3-3-3--3--3-3--0-|


:--------------------------------------------------------------------------|
:--------------------------------------------------------------------------|
:--------------------------------------------------------------------------|
:--9/---------7/--------9/--------7/-------9/--------7/-------9/--------7/-|
:--7/---------5/--------7/--------5/-------7/--------5/-------7/--------5/-|
:--------------------------------------------------------------------------|

solo 2 
                                 wah 
                            bar        repeat                                   bar
:-------------------------------|---------------------|------------------------------------|
:-------------------------------|-8-9-11-9-8----------|-11b-11b---11/----------------------|
:-2AH~~--(2AH)~~-----(2AH)------|------------11-9-8-9-|---------------3b--(3b)/------3--5--|
:-------------------------------|---------------------|------------------------------------|
:-------------------------------|---------------------|------------------------------------|
:----------------------------0--|---------------------|--------------------------0---------|

                pick slide                                          3 times
:------------------------------------------------------------------|---------|-------------|
:--------------------------/4--------4-----------------------------|---------|-------------|
:-(5)--(5)/----------------/5-----5--5---5h6p5----5h6p5----5--5~~~-|-3/5h6p5-|-3-5--5b-----|
:------------------------------6---------------8--------8----------|---------|----------5/-|
:---------------X/-------------------------------------------------|---------|-------------|
:-----------0---X/-------------------------------------------------|---------|-------------|

:------------------3/21/3------18---------19---------19----19-19191919-19b-19b-19b---------|
:-/16~~~-------------------/19----19--/20----20--/20----20----20202020-20b-20b-20b-19191919|
:----------------------------------------------------------------------------------19191919|
:------------------------------------------------------------------------------------------|
:------------------------------------------------------------------------------------------|
:---------14-14b/--------------------------------------------------------------------------|

eb:----------------------------------------------------------------------------------------|
Bb:-19-19-19-19-19---------3-----5--5~~~------------------------------------------------10-|
Gb:-20-21-20-19-20---------3h5---5--5~~~-----------------3h4p3----5h6p5----/10-11-10-11----|
Db:---------------------------------------5--5~~~--(5/)--------6--------8------------------|
Ab:----------------------------------------------------------------------------------------|
Eb:-----------------/14--------------------------------------------------------------------|

eb:-------------------------------------------------------------------------|
Bb:-11-10-11-10-11-13-11-10---------------------22b---22b---22b-------------|
Gb:-------------------------13-11-10---8-/-21-------------------------------|
Db:---------------------------------------------------------------5/-----X--|
Ab:----------------------------------------------------------------------X--|
Eb:--------------------------------------------------------------------0-X--|

under the solo 2
:--------------------|
:--------------------|
:--------------------|
:----------------9/--|
:-2--------------7/--|
:-0-0-0--0-0-0-------|

:--------------------------------|
:--------------------------------|
:--------------------------------|
:----------------------------9/--|
:-2-2-2-2-2-2-2-2-2-2-2-2-2--7/--|
:-0-0-0-0-0-0-0-0-0-0-0-0-0------|

  (2:42)
eb:--------------------------|
Bb:--------------------------|
Gb:--------------------------|
Db:-12-------12/-------------|
Ab:-10-------10/-------------|
Eb:----0-0-0-----0-0-0-0-0-0-|

 2:52
pm...............................
eb:-------------------------------|
Bb:-------------------------------|
Gb:-------------------------------|
Db:-------------------------------|
Ab:-2-----------------------------|
Eb:-3--3-3-3-3-3-3--1-1-1-1--0--1-|





Comments


Popular Slayer tabs & chords
Black Magic 4 Bass Tabs
Bloodline Bass Tabs
Ddamm Bass Tabs
Fight Till Death Bass Tabs
Psychopathy Red Bass Tabs
At Dawn They Sleep Tabs
Dead Skin Mask W Solos Tabs
Eyes Of The Insane 2 Tabs
In A Gadda Da Vida 1 Tabs
Payback 1 Tabs


Song lyrics



↑ Back to top | Tablatures and chords are parodies/interpretations of the original songs. You may use it for private study, scholarship, research or language learning purposes only
© 2014 AZChords.com Contact us | Privacy policy | DMCA | Add/correct tabs | Request tabs | Top 50 tabs