>
 >
Born Of Fire

Born Of Fire Guitar Tabs

Slayer - Born Of Fire chords, tabs, tablatures, lyrics

Guitar lessons | Add/correct | Request | Top 50 tabs Artists:  A B C D E F G H I J K L M N O P Q R S T U V W X Y Z 0-9

Born Of Fire Guitar Tabs – Slayer

CD, Sheet music, Poster

Do you like Born Of Fire? Share with your friends now
Bass TabsTabsTabs v2
SLAYER - BORN OF FIRE
(Seasons In The Abyss, 1990)

Key
= after note = vibrato
^ after note = heavy vibrato 
\ = slide down
/ = slide up
+ = tap
h = hammer
p = pull
n = natural harmonic
s = pinching harmonic (squeal)
* = tremolo pick
t = trill
b = bend
|-3-| = triplet

n number above the tab = play the first part then the first finishing part
			 play the first part a second time and then play the second finishing part
			 etc.

Tune Down 1/2 Step

Intro

Eb ---------------------------------------------------------------------------------------------------
Bb ---------------------------------------------------------------------------------------------------
Gb ----------------------2-------5----------------------2-------5----------------------2-------5------
Db ------4-------3-------2-------5------4-------3-------2-------5------4-------3-------2-------5------
Ab ------4-------3-------0-------3------4-------3-------0-------3------4-------3-------0-------3------
Eb -53-0-2--53-0-1--53-0----53-0----0-1-2--53-0-1--53-0----53-0----0-1-2--53-0-1--53-0----53-0----0-1-

Eb --------------------------------
Bb --------------------------------
Gb -----------------2-------5------
Db -4-------3-------2-------5------
Ab -4-------3-------0-------3------
Eb -2--53-0-1--53-0----53-0----0-1-

Riff 1

Eb ---------------------------------------------------------------------------------
Bb ---------------------------------------------------------------------------------
Gb --------------------------------------------------------------------------4------
Db ----------------------------------------------------------------5---------4------
Ab ----------------------------------------------------------------5---------2------
Eb -3-22-22-22-22-22-0-2-5-22-22-22-22-22-0-2-3-22-22-22-22-22-0-2-3--3-2-0-----0-2-

Riff 1A

Eb -----------------------------------------------------------------------------
Bb -----------------------------------------------------------------------------
Gb --------------------------------------------------------------------------4--
Db ----------------------------------------------------------------5---------4--
Ab ----------------------------------------------------------------5---------2--
Eb -3-22-22-22-22-22-0-2-5-22-22-22-22-22-0-2-3-22-22-22-22-22-0-2-3--3-2-0-----

Riff 2

Eb -------------------------------------------------------------------------------------------
Bb -------------------------------------------------------------------------------------------
Gb -------------------------------------------------------------------------------------------
Db -------------------------------------8-8-8-------------------------------------------------
Ab -------------------------------------8-8-8-------------------------------------------------
Eb -33-33-33-33-33-33-33-33-33-33-33-33-6-6-6-22-22-22-22-22-22-22-22-22-22-22-22-22-22-22-22-
					|-3-|

Eb ------------------------------------------------------------
Bb ------------------------------------------------------------
Gb ------------------------------------------------------------
Db -------------------------------------8-8-8-4----------------
Ab -------------------------------------8-8-8-4----------------
Eb -33-33-33-33-33-33-33-33-33-33-33-33-6-6-6-2----------------
					|-3-|

Riff 3

Eb -------------------------------------------------------------------------------------------------
Bb -------------------------------------------------------------------------------------------------
Gb -----------------2-------5-----------------------2-------5-----------------------2-------5-------
Db -4-------5-------2-------5-------4-------5-------2-------5-------4-------5-------2-------5-------
Ab -4-------3-------0-------3-------4-------3-------0-------3-------4-------3-------0-------3-------
Eb -2--53-0-1--53-0----53-0----53-0-2--53-0-1--53-0----53-0----53-0-2--53-0-1--53-0----53-0----53-0-

Eb --------------------------------
Bb --------------------------------
Gb -----------------2-------5------
Db -4-------3-------2-------5------
Ab -4-------3-------0-------3------
Eb -2--53-0-1--53-0----53-0----0-1-

Riff 3A

Eb -------------------------------------------------------------------------------------------------
Bb -------------------------------------------------------------------------------------------------
Gb -----------------2-------5-----------------------2-------5-----------------------2-------5-------
Db -4-------5-------2-------5-------4-------5-------2-------5-------4-------5-------2-------5-------
Ab -4-------3-------0-------3-------4-------3-------0-------3-------4-------3-------0-------3-------
Eb -2--53-0-1--53-0----53-0----53-0-2--53-0-1--53-0----53-0----53-0-2--53-0-1--53-0----53-0----53-0-

Eb ----------------------------------
Bb ----------------------------------
Gb -----------------2-------5--------
Db -4-------3-------2-------5--7-5-2-
Ab -4-------3-------0-------3--7-5-2-
Eb -2--53-0-1--53-0----53-0----5-3-0-

Riff 4

Eb ---------------------------------
Bb ---------------------------------
Gb ---------------------------------
Db -----------------------------6-5-
Ab -------5-4-----4-3-----------6-5-
Eb -0-0-0-5-4-0-0-4-3-0-0-0-0-0-4-3-

Riff 5

Eb ---------------------------------
Bb ---------------------------------
Gb ---------------------------------
Db ---------------5-4-----4-3---6-5-
Ab ---------------5-4-----4-3---6-5-
Eb -0-0-0-0-0-0-0-3-2-0-0-2-1-0-4-3-

Riff 5A

Eb ---------------------------------
Bb ---------------------------------
Gb ---------------------------------
Db ---------------5-4-----4-3-------
Ab ---------------5-4-----4-3---2-4-
Eb -0-0-0-0-0-0-0-3-2-0-0-2-1-0-0-0-

Riff 6

Eb ---------------------------------
Bb ---------------------------------
Gb ---------------------------------
Db -------4-----------5-----4-------
Ab -5-----------4---------------2-4-
Eb ---0-0---0-0---0-0---0-0---0-0-0-

Order

Intro x 1
Riff 1 x 3
Riff 1A x 1
Riff 2 x 1
Riff 3 x 1
Riff 1 x 3
Riff 1A x 1
Riff 2 x 1
Riff 3 x 1
Solo over Riff 1 x 1
Solo over Riff 1A x 1
Solo over Riff 2 x 1
solo over Riff 3A x 1
Riff 4 x 4
Riff 5 x 3
Riff 5A x 1
Riff 6 x 4
Solo over Riff 5 x 2
Solo over Riff 4 x 2
Riff 6 x 4
Solo over Riff 1 x 4





Comments


Popular Slayer tabs & chords
I'm Gonna Be Your God 1 Bass Tabs
Kill Again 2 Bass Tabs
Here Comes The Pain Drum Tabs
Bitter Peace 2 Tabs
Disorder 1 Tabs
Dittohead Tabs
Divine Intervention Tabs
Jihad 1 Tabs
Necrophobic 3 Tabs
Screaming From The Sky 1 Tabs


Song lyrics



↑ Back to top | Tablatures and chords are parodies/interpretations of the original songs. You may use it for private study, scholarship, research or language learning purposes only
© 2014 AZChords.com Contact us | Privacy policy | DMCA | Add/correct tabs | Request tabs | Top 50 tabs