» » »

Blood Line Tabs (ver.5)

Artists:  A B C D E F G H I J K L M N O P Q R S T U V W X Y Z # 

Blood Line Tabs (ver.5)

Slayer
Rating:
0/5 (0 votes)

Hard to play? Try these video lessons and learn fast.
                (Intro)
E--------------------
B--------------------
G--------------------
D2---25---54---43---3 REPEAT 3 TIMES THEN
A2---25---54---43---3
E0---03---32---21---1     

E--------------------
B--------------------
G--------------------
D2---25---54---2-4542
A2---25---54---2-4542
E0---03---32---0-2320

THATS IT. YOU CAN HOLD THE CHORD IN A SIMPLE F SHAPE.

     ROCK ON!
            
Hard to play? Try these video lessons and learn fast. | Correct




comments powered by Disqus
↑ Back to top | Tablatures and chords are parodies/interpretations of the original songs. You may use it for private study, scholarship, research or language learning purposes only