>
 >
Bitter Peace 2

Bitter Peace 2 Guitar Tabs

Slayer - Bitter Peace 2 chords, tabs, tablatures, lyrics

Guitar lessons | Add/correct | Request | Top 50 tabs Artists:  A B C D E F G H I J K L M N O P Q R S T U V W X Y Z 0-9

Bitter Peace 2 Guitar Tabs – Slayer

CD, Sheet music, Poster

Do you like Bitter Peace 2? Share with your friends now
Bass TabsBass Tabs v2Bass Tabs v3Drum TabsTabsTabs v2Tabs v3
SLAYER-Bitter Peace
 From the Diabolus in Musica CD
 
 Tune to C# this the the correct tuning

 Riff 1 (INTRO RIFF)
 Guitar 1 Played 4x then both guitars play Riff 1
|------------------------|
|------------------------|
|------------------------|
|------------------------|
|2-4-3--2-4-3--4-7-7-6---|
|0-2-1--0-2-1--2-5-5-4---|
|                        |
|Guitar 2 
|------------------------|
|------------------------|
|------------------------|               
|------------------------|
|--------------4-7-7-6---|
|--------------2-5-5-4---|


 Riff 2 Played 3 x's       Then play this w/fill 1
|-----------------------|--------------------------|
|-----------------------|-------------------------|
|-----------------------|-------------------------|
|-----------------------|-------------------------|
|--5-8-7--5-8-7--5-44---|5-8-7-5--------5\4-------|
|--3-6-5--3-6-5--3-22---|3-6-5-3--3-5-6-----5-4-1-|

 (Back to Riff 1)



 Riff 2a                  Then play this w/fill 2
|----------------------|-------------------------------------------|
|----------------------|-------------------------------------------|
|----------------------|-------------------------------------------|
|----------------------|-------------5-------------2---------------| 
|-5-8-7--5-8-7--5-44---|6-8-7-5--4-5---4-3---------2-----let-ring--|
|-3-6-5--3-6-5--3-22---|3-6-5-3-------------5-4-1--0---------------|
   



 Riff 3  Play 3 x
 Guitar 1
|--------------------------------|
|--------------------------------|
|--------------------------------|
|----------------9---7-------2-3-|
|2---------------7---5-------2-3-|
|0---0-0-0-0-0-0-------------0-1-|
|    * * * * * *                 |                                
| Guitar 2                       |
|--------------------------------|
|--------------------------------|
|--------------------------------|                                
|----------------------------2-3-|
|2---------------------------2-3-|
|0---------------------------0-1-|

 Play Riff 4  3x
 Guitar 1
|-----------------------------------------------------------------|
|-----------------------------------------------------------------|
|-----------------------------------------------------------------|
|---------------------------------------------------------2-3-----|
|2---------8-7~------------10-8~------------8-7~----5-7---2-3-----|
|00000000--------00000000---------00000000----------------0-1-----|
|********        ********         ********                        |
| Guitar 2                                                        |
|-----------------------------------------------------------------|
|-----------------------------------------------------------------|
|-----------------------------------------------------------------|
|---------------------------------------------------------2-3-----|
|2--------------------------------------------------------2-3-----|
|0--------------------------------------------------------0-1-----|

 Riff 4a
 Guitar 1
|-----------------------------------------------------------------|
|-----------------------------------------------------------------|
|-----------------------------------------------------------------|
|---------------------------------------------------------2-3-----|
|2---------8-7~------------10-8~------------8-7~----5-7---2-3-----|
|00000000--------00000000---------00000000----------------0-1-----|
|********        ********         ********                        |
|Guitar 2                                                         |
|-----------------------------------------------------------------|
|-----------------------------------------------------------------|
|-----------------------------------------------------------------|
|---------------------------------------------------------2-3-----|
|2-------8-7-------------10-8-------------8-7-----5-7-----2-3-----|
|0-------8-7-------------10-8-------------8-7-----5-7-----0-1-----|


 Riff 5
 Both Guitars
|---------------------------------------------------------------------------------------------|
|---------------------------------------------------------------------------------------------|
|---------------------------------------------------------------------------------------------|      
|---------------------------------------------------------------------------------------------|
|--------------6~-------------8~------------------------6~------------------------------------|
|--0-0-0-0-0-0---0-0-0-0-0-0----0-0-0-0-0---0-0-0-0-0-0---0-0-0-0-0--3-3-3-3-3-3-3-1-1-1-1-1--|
P.M* * * * * *   * * * * * *    * * * * *   * * * * * *   * * * * *  * * * * * * * * * * * * 

 Riff 5 endings
 Ending 1         Ending 2
|---------------|--------------------|
|---------------|--------------------|
|---------------|--------------------|                  
|--------2-3----|------------2-3-----|
|5-7-----2-3----|------------2-3-----|
|5-7-----0-1----|3-3-3-3-3-3-0-1-----|
P.M              * * * * * *


 Riff 6 Chours
|----------------------------------------------------------------|
|----------------------------------------------------------------|
|----------------------------------------------------------------|
|----------------------------------------------------------------|
|------------------------4-3-2-----------5-4-3-----------6-5-4---|
|3-2-0-2-3-2-0-2-3-2-0-2-------2-3-2-0-2-------2-3-2-0-2-------2-|
 * * * * * * * * * * * *       * * * * *       * * * * *       *

 Riff 3a
|---------------------|-------------------------|
|---------------------|-------------------------|
|---------------------|101010101010101010101010-|         
|--------------5-3----|101010101010101010101010-|  
|--------------5-3----|8-8-8-8-8-8-8-8-8-8-8-8--|    
|--0-0-0-0-0-0--------|-------------------------|
P.M* * * * * *                                        

 Riff 3b        
|-------------------------------|
|-------------------------------|
|-------------------------------|       
|-------------------------------|
|5--------5---------4-----------|  
|3-3-33-3-3-3-33-3--2-2-2-2-2-2-|
P.M* ** *   * ** *    * * * * *

 Riff 7 w/ lyrics-No longer kill your brother
|----------------------------------------------------------------|
|----------------------------------------------------------------|
|----------------------------------------------------------------|
|----------------------------------------------------------------|
|2-----------22--------------53--------------22------53------23--|
|00000000000001--00000000000031--00000000000001--000031--000001--|
 ************    ************    ************    ****    ****

 Riff 6
|------------------------------------------------|
|------------------------------------------------|
|------------------------------------------------|
|------------------------------------------------|
|------------------------4-3-2-----------5-4-3---|
|3-2-0-2-3-2-0-2-3-2-0-2-------2-3-2-0-2-------2-|
 * * * * * * * * * * * *       * * * * *       *


 Riff 8
|----------------------------------------------------------------|
|----------------------------------------------------------------|
|----------------------------------------------------------------|
|4-------5-------2-------4-------5-------9-------8-------3-------|
|4-------5-------2-------4-------5-------9-------8-------3-------|
|2-------3-------0-------2-------3-------7-------6-------1-------|

 Riff 9 Rhytum under solo
 Played 1 & 3 x's             2 x              4 x
|---------------------------|-----------------|-----------------------|
|---------------------------|-----------------|-----------------------|
|---------------------------|-----------------|-----------------------|                 
|---------------------------|-----------------|-----------------------|
|---------3-----------------|-----------------|--------2-4----2-4-----|
|-22222222--2222222233333333|3333333366666666-|222222220-2----0-2-----|


 Riff 9a 1 & 3 x's           2 x              4 x 
|---------------------------|----------------|-------------------------|
|---------------------------|----------------|-------------------------|
|---------------------------|----------------|-------------------------|                  
|---------------------------|----------------|-------------------------|
|---------4-----------------|----------------|--------2-4---2-5---2-4--|
|-33333333--3333333344444444|4444444477777777|333333330-2---0-3---0-2--|



 Riff 4
 Guitar 1
|---------------------------------------------------------|
|---------------------------------------------------------|
|---------------------------------------------------------|
|--------------------------------------------------3------|
|2-------8-7~------------10-8~------------8-7~^----3------|
|00000000--------00000000---------00000000---------1------|
|********        ********         ********
|Guitar 2
|---------------------------------------------------------|
|---------------------------------------------------------|
|---------------------------------------------------------|
|--------------------------------------------------3------|
|--------------------------------------------------3------|
|--------------------------------------------------1------|


 Riff 10
 Played 3 x's                                       Played on 4th x  
|--------------------------------------------------|--------------|
|--------------------------------------------------|--------------|
|--------------------------------------------------|--------------|
|--------------------6-5-4-------------------------|------2-3-----|
|--------------------------5---------------------6-|------2-3-----|
|-000000000000000000----------000000000000000000-4-|0000000-1-----|
  ******************          ******************

Then play this at the end of Riff 10
|----------------------------------------|
|----------------------------------------|
|----------------------------------------|
|----------------------------------------|
|------------------------5---9---8-------|
|3-2-0-2-3-2-0-2-3-2-0-2-3---7---6-------|
 * * * * * * * * * * * *

Then go right into this
|----------------------------------------------------------------|
|----------------------------------------------------------------|
|----------------------------------------------------------------|
|----------------------------------------------------------------|
|--------------------------3-2---------------------------5-4-3---|
|3-2-0-2-3-2-0-2-3-2-0-2-3-----2-3-2-0-2-3-2-0-2-3-2-0-2---------|
 * * * * * * * * * * * * *     * * * * * * * * * * * * * 


 Guitar 1
|-----------------------------------|
|-----------------------------------|
|-----------------------------------|  
|------------------7---5--------2-3-|
|--2---------------7---5--------2-3-|
|--0---0-0-0-0-0-0--------------0-1-|
|      * * * * * *                                             
|Guitar 2 
|-----------------------------------|
|-----------------------------------|
|-----------------------------------|                                                            
|-------------------------------2-3-|
|-------------------------------2-3-|
|-------------------------------0-1-|

 One     cryptic     reason   for life  murder
|-----------------------------------------------------|
|-----------------------------------------------------|
|-----------------------------------------------------|
|-----------------------------------------------------|
|2-------8-7---------108--------8-7-----7-8-----------|
|0-------8-7---------108--------8-7-----7-8-----------|





Comments


Popular Slayer tabs & chords
Disintegration 1 Bass Tabs
Evil Has No Boundaries Bass Tabs
In A Gadde Da Vidda Bass Tabs
Live Undead Bass Tabs
Drunk Drives Against Mad Mothers Tabs
Give Me A Reason Tabs
Payback 1 Tabs
Silent Scream 2 Tabs
Spill The Blood 2 Tabs
The Final Command Tabs


Song lyrics



↑ Back to top | Tablatures and chords are parodies/interpretations of the original songs. You may use it for private study, scholarship, research or language learning purposes only
© 2014 AZChords.com Contact us | Privacy policy | DMCA | Add/correct tabs | Request tabs | Top 50 tabs