» » »

Slayer, Addict Tabs (ver.2)

Artists:  A B C D E F G H I J K L M N O P Q R S T U V W X Y Z # 

Addict Tabs (ver.2)

Slayer Tabs
 Rating:
4/5 (4 votes)
Addict lessons Tabs too difficult? Try these video lessons and learn fast
1
                

   solo                            full/-------------------
Eb|----------------------------------------------------------------------|
Bb|----------------------------------------------------------------------|
F#|-5-5-4--5-5-4--5-4--5-4-(4)~~~~---6b~~--(6)-6-6-6b--6-6--4-4--6p4-6p4-|
C#|----------------------------------------------------------------------|
G#|----------------------------------------------------------------------|
C#|----------------------------------------------------------------------|


                                /---------------
Eb|------------------------------------------------------18-19-21-19-18----|
Bb|---------------------------18b-18-18-18-18-18--18~~~-----------------21-|
F#|-4/17-17-16--17-16--17-16-----------------------------------------------|
C#|------------------------------------------------------------------------|
G#|------------------------------------------------------------------------|
C#|------------------------------------------------------------------------|


   
Eb|-------------------------|----------------------------------------------|
Bb|-18-19-21-19-18----------|-/17-17-17-17-17-17--17-17-17-17-17-/17-17-17-|
F#|----------------20-18-17-|-/17-17-17-17-17-17--17-17-17-17-17-/17-17-17-|
C#|-------------------------|----------------------------------------------|
G#|-------------------------|----------------------------------------------|
C#|-------------------------|----------------------------------------------|



Eb|------------------------------------------------------------------------|
Bb|17-17-17-17--/18-18-18-18--/17-17-17-17-17-17--/17-17-17-17-18-18-18-18-|
F#|17-17-17-17--/18-18-18-18--/17-17-17-17-17-17--/17-17-17-17-18-18-18-18-|
C#|------------------------------------------------------------------------|
G#|------------------------------------------------------------------------|
C#|------------------------------------------------------------------------|

                                               slide down
Eb|------------------------------------------------------------------|
Bb|-19-19-19-20-20-20-21-21-22-22-22-23-23-24-24/--------------------|
F#|-19-19-19-20-20-20-21-21-22-22-22-23-23-24-24/--------------------|
C#|------------------------------------------------------------------|
G#|------------------------------------------------------------------|
C#|------------------------------------------------------------------|
            
Submit corrections

comments powered by Disqus
↑ Back to top | Slayer Tabs for Addict. Lyrics for acoustic guitar and electric guitar. 1 Tablatures and chords are parodies/interpretations of the original songs. You may use it for private study, scholarship, research or language learning purposes only