» » »

Slayer, Abolish The Goverment Superficial Love Bass tabs (ver.1)

Artists:  A B C D E F G H I J K L M N O P Q R S T U V W X Y Z # 

Abolish The Goverment Superficial Love Bass tabs (ver.1)

Slayer Tabs
 Rating:
4/5 (4 votes)
Abolish The Goverment Superficial Love lessons Tabs too difficult? Try these video lessons and learn fast
1
                
ABOLISH THE GOVERMENT/ SUPERFICIAL LOVE (Bassline)
As recorded by Slayer
(From the 1996 Album UNDISPUTED ATTITUDE)

	

Words and Music by Grisham/Barnes/Emory/Roche

Gtr I (Eb Ab Db Gb) - 'Bass'

 Intro
  Q=220
 4/4
  Gtr I
  Q  E E E E E E   +E  S S E E Q  Q    Q  E E E E E E   +E  S S E E Q  Q
|----------------|-------------------|----------------|--------------------|
|----------------|-----5h7-7-7-8--5--|----------------|-----5h7-7-7-8--5---|
|-7--7-7-7-7-7-7-|-(7)---------------|-7--7-7-7-7-7-7-|-(7)----------------|
|----------------|-------------------|----------------|--------------------|


  Q  E E E E E E   +E  S S E E Q  Q    Q  E E E E E E   Q  E Q.   Q
|----------------|-------------------|----------------|---------------||
|----------------|-----5h7-7-7-8--5--|----------------|---------------||
|-7--7-7-7-7-7-7-|-(7)---------------|-7--7-7-7-7-7-7-|-9----8----8---||
|----------------|-------------------|----------------|---------------||


 Verse 1
  Q  E E E E E E   +E  E E E Q  Q    Q  E E E E E E   +E  E E E Q  Q
|----------------|-----------------|----------------|-----------------|
|----------------|-----------------|----------------|-----------------|
|----------------|-----------------|----------------|-----------------|
|-0--0-0-0-0-0-0-|-(0)-5-5-5-6--3--|-0--0-0-0-0-0-0-|-(0)-5-5-5-6--3--|


  Q  E E E E E E   +E  E E E Q  Q    Q  E E E E E E   Q  E Q.   Q
|----------------|-----------------|----------------|--------------|
|----------------|-----------------|----------------|--------------|
|----------------|-----------------|----------------|--------------|
|-0--0-0-0-0-0-0-|-(0)-5-5-5-6--3--|-0--0-0-0-0-0-0-|-2--0-1----1--|


  Q  E E E E E E   +E  E E E Q  Q    Q  E E E E E E   +E  E E E Q  Q
|----------------|-----------------|----------------|-----------------|
|----------------|-----------------|----------------|-----------------|
|----------------|-----------------|----------------|-----------------|
|-0--0-0-0-0-0-0-|-(0)-5-5-5-6--3--|-0--0-0-0-0-0-0-|-(0)-5-5-5-6--3--|


  Q  E E E E E E   +E  E E E Q  Q    Q  E E E E E E   Q  E Q.   Q
|----------------|-----------------|----------------|--------------|
|----------------|-----------------|----------------|--------------|
|----------------|-----------------|----------------|--------------|
|-0--0-0-0-0-0-0-|-(0)-5-5-5-6--3--|-0--0-0-0-0-0-0-|-2--0-1----1--|


  Q  H.        W          Q  E E E E E E   +E  E E E Q  Q
|------------|----------|----------------|-----------------|
|------------|----------|----------------|-----------------|
|------------|----------|--------8-8-8-7-|-(7)-7-7-7-5-----|
|-7----------|----------|-7--7-7---------|--------------5--|


  Q  E E E E E E   +E  E E E Q  Q    Q  E E E E E E   +E  E E E Q  Q
|----------------|-----------------|----------------|-----------------||
|----------------|-----------------|----------------|-----------------||
|--------8-8-8-7-|-(7)-7-7-7-5-----|--------8-8-8-7-|-(7)-7-7-7-5-----||
|-7--7-7---------|--------------5--|-7--7-7---------|--------------5--||


 Chorus
  Q  E E E E E E   +E  E E E Q  Q    Q  E E E E E E   +E  E E E Q  Q
|----------------|-----------------|----------------|-----------------|
|----------------|-----------------|----------------|-----------------|
|--------8-8-8-7-|-(7)-7-7-7-5-----|--------8-8-8-7-|-(7)-7-7-7-5-----|
|-7--7-7---------|--------------5--|-7--7-7---------|--------------5--|


  Q  E E E E E E   +E  E E E Q  Q    Q  E E E E E E   +E  E E E Q  Q
|----------------|-----------------|----------------|-----------------|
|----------------|-----------------|----------------|-----------------|
|--------8-8-8-7-|-(7)-7-7-7-5-----|--------8-8-8-7-|-(7)-7-7-7-5-----|
|-7--7-7---------|--------------5--|-7--7-7---------|--------------5--|


  Q  Q  Q  Q    E E E Q  E Q    Q  Q  Q  Q    E E E Q  E Q
|-------------|---------------|-------------|---------------|
|-------------|---------------|-------------|---------------|
|-7--7--8--8--|---------------|-7--7--8--8--|---------------|
|-------------|-8-8-8-9--9-9--|-------------|-8-8-8-9--9-9--|


  Q  Q  Q  Q    E E E Q  E Q    Q  Q  Q  Q    W
|-------------|---------------|-------------|------||
|-------------|---------------|-------------|------||
|-7--7--8--8--|---------------|-7--7--8--8--|------||
|-------------|-8-8-8-9--9-9--|-------------|-0----||


 Verse 2
  Q  E E E E E E   +E  E E E Q  Q    Q  E E E E E E   +E  E E E Q  Q
|----------------|-----------------|----------------|-----------------|
|----------------|-----------------|----------------|-----------------|
|--------8-8-8-7-|-(7)-7-7-7-5-----|--------8-8-8-7-|-(7)-7-7-7-5-----|
|-7--7-7---------|--------------5--|-7--7-7---------|--------------5--|


  Q  E E E E E E   +E  E E E Q  Q    Q  E E E E E E   +E  E E E Q  Q
|----------------|-----------------|----------------|-----------------||
|----------------|-----------------|----------------|-----------------||
|--------8-8-8-7-|-(7)-7-7-7-5-----|--------8-8-8-7-|-(7)-7-7-7-5-----||
|-7--7-7---------|--------------5--|-7--7-7---------|--------------5--||


 Break
 3/4         4/4               3/4         4/4
  Q.   Q.     E E E E E E E E   Q.   Q.     E E E E E E E E
|-----------|-----------------|-----------|-----------------|
|-----------|-----------------|-----------|-----------------|
|-2----8----|-----------------|-2----8----|-----------------|
|-----------|-5-5-5-5-5-5-5-5-|-----------|-5-5-5-5-5-5-5-5-|


 3/4         4/4               3/4         4/4
  Q.   Q.     E E E E E E E E   Q.   Q.     E E E E E E E E
|-----------|-----------------|-----------|-----------------|
|-----------|-----------------|-----------|-----------------|
|-2----8----|-----------------|-2----8----|-----------------|
|-----------|-5-5-5-5-5-5-5-5-|-----------|-5-5-5-5-5-5-5-5-|


  Q  E E E E E E   +E  E E E Q  Q    Q  E E E E E E   +E  E E E Q  Q
|----------------|-----------------|----------------|-----------------|
|----------------|-----------------|----------------|-----------------|
|--------8-8-8-7-|-(7)-7-7-7-5-----|--------8-8-8-7-|-(7)-7-7-7-5-----|
|-7--7-7---------|--------------5--|-7--7-7---------|--------------5--|


 Verse 3
  Q  E E E E E E   +E  E E E Q  Q    Q  E E E E E E   +E  E E E Q  Q
|----------------|-----------------|----------------|-----------------|
|----------------|-----------------|----------------|-----------------|
|--------8-8-8-7-|-(7)-7-7-7-5-----|--------8-8-8-7-|-(7)-7-7-7-5-----|
|-7--7-7---------|--------------5--|-7--7-7---------|--------------5--|


  Q  E E E E E E   +E  E E E Q  Q    Q  E E E E E E   +E  E E E Q  Q
|----------------|-----------------|----------------|-----------------||
|----------------|-----------------|----------------|-----------------||
|--------8-8-8-7-|-(7)-7-7-7-5-----|--------8-8-8-7-|-(7)-7-7-7-5-----||
|-7--7-7---------|--------------5--|-7--7-7---------|--------------5--||


 Verse 4
  Q  E E E E E E   +E  E E E Q  Q    Q  E E E E E E   +E  E E E Q  Q
|----------------|-----------------|----------------|-----------------|
|----------------|-----------------|----------------|-----------------|
|--------8-8-8-7-|-(7)-7-7-7-5-----|--------8-8-8-7-|-(7)-7-7-7-5-----|
|-7--7-7---------|--------------5--|-7--7-7---------|--------------5--|


  Q  E E E E E E   +E  E E E Q  Q    Q  E E E E E E   +E  E E E Q  Q
|----------------|-----------------|----------------|-----------------|
|----------------|-----------------|----------------|-----------------|
|--------8-8-8-7-|-(7)-7-7-7-5-----|--------8-8-8-7-|-(7)-7-7-7-5-----|
|-7--7-7---------|--------------5--|-7--7-7---------|--------------5--|


  Q  Q  Q  Q    E E E Q  E Q    Q  Q  Q  Q    E E E Q  E Q
|-------------|---------------|-------------|---------------|
|-------------|---------------|-------------|---------------|
|-7--7--8--8--|---------------|-7--7--8--8--|---------------|
|-------------|-8-8-8-9--9-9--|-------------|-8-8-8-9--9-9--|


  Q  Q  Q  Q    E E E Q  E Q    Q  Q  Q  Q    W
|-------------|---------------|-------------|------||
|-------------|---------------|-------------|------||
|-7--7--8--8--|---------------|-7--7--8--8--|------||
|-------------|-8-8-8-9--9-9--|-------------|-0----||


 Verse 5
  Q  E E E E E E   +E  E E E Q  Q    Q  E E E E E E   +E  E E E Q  Q
|----------------|-----------------|----------------|-----------------|
|----------------|-----------------|----------------|-----------------|
|--------8-8-8-7-|-(7)-7-7-7-5-----|--------8-8-8-7-|-(7)-7-7-7-5-----|
|-7--7-7---------|--------------5--|-7--7-7---------|--------------5--|


  Q  E E E E E E   +E  E E E Q  Q    Q  E E E E E E   +E  E E E Q  Q
|----------------|-----------------|----------------|-----------------|
|----------------|-----------------|----------------|-----------------|
|--------8-8-8-7-|-(7)-7-7-7-5-----|--------8-8-8-7-|-(7)-7-7-7-5-----|
|-7--7-7---------|--------------5--|-7--7-7---------|--------------5--|


 Outro
               Q=110
                5/4
  Q.   H.        +W.
|--------------|---------*|
|--------------|---------*|
|------8\------|-(8)\----*|
|-7------------|---------*|



Duration Legend
---------------
W - whole; H - half; Q - quarter; E - 8th; S - 16th; T - 32nd; X - 64th; a - acciaccatura
+ - note tied to previous; . - note dotted; .. - note double dotted
Uncapitalized letters represent notes that are staccato (1/2 duration)
Irregular groupings are notated above the duration line
Duration letters will always appear directly above the note/fret number it represents the
duration for.  Duration letters with no fret number below them represent rests.  Multi-
bar rests are notated in the form Wxn, where n is the number of bars to rest for.  Low
melody durations appear below the staff

Tablature Legend
----------------
 h   - hammer-on
 p   - pull-off
 b   - bend
 pb  - pre-bend
 r   - bend release (if no number after the r, then release immediately)
 /\  - slide into or out of (from/to "nowhere")
 s   - legato slide
 S   - shift slide
 - natural harmonic
[n]  - artificial harmonic
n(n) - tapped harmonic
 ~   - vibrato
 tr  - trill
 T   - tap
 TP  - trem. picking
 PM  - palm muting
\n/  - tremolo bar dip; n = amount to dip
 \n  - tremolo bar down
 n/  - tremolo bar up
/n\  - tremolo bar inverted dip
 =   - hold bend; also acts as connecting device for hammers/pulls
 <> - volume swell (louder/softer)
 x   - on rhythm slash represents muted slash
 o   - on rhythm slash represents single note slash

Misc Legend
-----------
 |  - bar
||  - double bar
||o - repeat start
o|| - repeat end
*|  - double bar (ending)
 :  - bar (freetime)
 $  - Segno
 &  - Coda
Tempo markers -  = BPM(8/16=s8/s16), where s8 = swing 8ths, s16 = swing 16ths
            
Submit corrections

comments powered by Disqus
↑ Back to top | Slayer Bass for Abolish The Goverment Superficial Love. Lyrics for acoustic guitar and electric guitar. 1 Tablatures and chords are parodies/interpretations of the original songs. You may use it for private study, scholarship, research or language learning purposes only