>
 >
Truth

Truth Bass Tabs

Slashs Snakepit - Truth chords, tabs, tablatures, lyrics

Guitar lessons | Add/correct | Request | Top 50 tabs Artists:  A B C D E F G H I J K L M N O P Q R S T U V W X Y Z 0-9

Truth Bass Tabs – Slashs Snakepit

CD, Sheet music, Poster

Do you like Truth? Share with your friends now
Bass TabsTabs
++++++++++++++++++++++++++++++++++++++++++++++++++++++++++++++++++++++++++++++++
The Truth - Slash's Snakepit
++++++++++++++++++++++++++++++++++++++++++++++++++++++++++++++++++++++++++++++++


Tuning: 1/2 a step down on all strings

/ = slide (while picking)
s = slide
h = hammer-on
p = pull-off
H = hold/bend/ring

INTRO:
F#--------------------------------------------------|
C#--------------------------------------------------|
G#-------1s5--5--4-4-4-3--5------1s5--5--4-4-4-3--5-|
D#--0--0--------------------0--0--------------------|

VERSE BASSLINE:
F#---------------------------------------|
C#-------------------5-------------------|
G#--7---5-7----5--5h7---7---5-7----5-0---|
D#----0-----5h7-----------0-----5h7----3-| x6

PRE CHORUS: "How in the hell did I get here?..."
F#-------------------------------------------------------------------------|
C#-------------------5------------------5------------------5---------------|
G#--7---5-7----5--5h7--7---5-7----5--5h7--7---5-7----5--5h7--7---5-7--3--5-|
D#----0-----5h7----------0-----5h7----------0-----5h7----------0-----------|

CHORUS:
F#--------------------------------------------------|
C#--------------------------------------------------|
G#-------1s5--5--4-4-4-3--5------1s5--5--4-4-4-3--5-|
D#--0--0--------------------0--0--------------------| x2

F#---------------------------------------------|
C#-----2-0-2--3--2-0-2--4--2-0-2--3--2-0-2-----|
G#------2---------2---------2---------2--------|
D#--0--------------------------------------3H--| x3

F#---------------------------------------------|
C#-----2-0-2--3--2-0-2--4--2-0-2--0------------|
G#------2---------2---------2------------------|
D#--0--------------------------------5---3-----|

VERSE 2
PRE CHORUS 2

CHORUS 2:
F#--------------------------------------------------|
C#--------------------------------------------------|
G#-------1s5--5--4-4-4-3--5------1s5--5--4-4-4-3--5-|
D#--0--0--------------------0--0--------------------|

F#-----------------------------------------------------|
C#-------------------4s6-----------------------4s6-----|
G#--------5--5-5--4-4---3--5----------5--5--4-4------5-|
D#--00s12----------------------0--0s12------------1----|

BRIDGE:
F#----------------------------------------------------------|
C#-------5h7-5h7-------5h7-5h7-------5h7-5h7-------5h7-5h7--|
G#----------------------------------------------------------|
D#--5-5-5---5---5-5-5-5---5---5-5-5-5---5---5-5-5-5---5---5-|

F#---------------------------------|
C#------5------0-2-----5-----------|
G#---------2-4-------------2-3-5---|
D#--3-3--3---------3-3---3-------3-|

F#------------------------------|
C#-------5h7-5h7-------5h7-5h7--|
G#------------------------------|
D#--5-5-5---5---5-5-5-5---5---5-|

F#------------------------------|
C#------5-----------------------|
G#----------2-3-5-----------1---|
D#--3-3---3-------3-1-1-1-1---1-|

SOLO:
F#---------------------------------------------|
C#-----2-0-2--3--2-0-2--4--2-0-2--3--2-0-2-----|
G#------2---------2---------2---------2--------|
D#--0--------------------------------------3H--| x3

F#---------------------------------------------|
C#-----2-0-2--3--2-0-2--4--2-0-2--0------------|
G#------2---------2---------2------------------|
D#--0--------------------------------5---3-----|

F#------------------------------------------------------------------------------------|
C#------------------------------------------------------------------------------------|
G#----------------------------------2-2-2-2-2-2-2-3-3-3-3-3-3-3-------------------5-6-|
D#--0---------------0-------------------------------------------2-2-2-2-2-2-3-3-3-----|

CHORUS 3:
F#--------------------------------------------------|
C#--------------------------------------------------|
G#-------1s5--5--4-4-4-3--5------1s5--5--4-4-4-3--5-|
D#--0--0--------------------0--0--------------------| x4

F#-----------------------------------------------------|
C#-------------------4s6-----------------------4s6-----|
G#--------5--5-5--4-4---3--5----------5--5--4-4------5-|
D#--00s12----------------------0--0s12------------1----| x2

ENDING:
F#---------------------------------------|
C#-------------------5-------------------|
G#--7---5-7----5--5h7---7---5-7----5-0---|
D#----0-----5h7-----------0-----5h7----3-| and so on...

++++++++++++++++++++++++++++++++++++++++++++++++++++++++++++++++++++++++++++++++++++++





Comments


Popular Slashs Snakepit tabs & chords
Shine Bass Tabs
Back And Forth Again Tabs
Back And Forth Again 3 Tabs
Beggars And Hangers On (Intro) Tabs
Beggers And Hangers On Tabs
Fix Tabs
Give Into Me Tabs
I Hate Everybody But U Tabs
Shine 1 Tabs
Truth Tabs


Song lyrics



↑ Back to top | Tablatures and chords are parodies/interpretations of the original songs. You may use it for private study, scholarship, research or language learning purposes only
© 2014 AZChords.com Contact us | Privacy policy | DMCA | Add/correct tabs | Request tabs | Top 50 tabs