» » »

Slashs Snakepit, Speed Parade Bass tabs (ver.1)

Artists:  A B C D E F G H I J K L M N O P Q R S T U V W X Y Z # 

Speed Parade Bass tabs (ver.1)

Slashs Snakepit Tabs
Rating:
0/5 (0 votes)
Speed Parade lessons Tabs too difficult? Try these video lessons and learn fast
                ++++++++++++++++++++++++++++++++++++++++++++++++++++++++++++++++++++++++++++++++
Speed Parade - Slash's Snakepit
++++++++++++++++++++++++++++++++++++++++++++++++++++++++++++++++++++++++++++++++

Tuning: 1/2 a step down on all strings

/ = slide (while picking)
s = slide
h = hammer-on
p = pull-off
H = hold
b = bend
r = ring

This song is f**kING INSANE!

INTRO:
F#----------------------------------------------------------------------|
C#------5-4-3-2r--------------------------------------------------------|
G#----------------------------------------------------------------------|
D#------------------------3-2-1-0-00000000000-3-2-1-0--------0--0-------|

MAIN RIFF:
F#---------------------------------------------------------------|
C#---------------------------------------------------------------|
G#---------------------------------------------------------------|
D#--3-2-1-0--2-0-2-3--0--3-2--3-2-1-0--2-0-2-3--0--3-2--3-2-1-0--| x 2

VERSE:
F#---------------------------------------------------------------------------------------|
C#---------------------------------------------------------------------------------------|
G#--7-7-7-7-7-7-7-7-7-7-7-7-7-7-7-7-7-7-7-7-7-7-7-7-7-7-7-7-7-7-7-7-7-7-7-7-7-7-7-7-7-7--|
D#---------------------------------------------------------------------------------------|

F#---------------------------------------------------------------|
C#---------------------------------------------------------------|
G#---------------------------------------------------------------|
D#--3-2-1-0--2-0-2-3--0--3-2--3-2-1-0--2-0-2-3--0--3-2--3-2-1-0--|

F#---------------------------------------------------------------------------------------|
C#---------------------------------------------------------------------------------------|
G#--7-7-7-7-7-7-7-7-7-7-7-7-7-7-7-7-7-7-7-7-7-7-7-7-7-7-7-7-7-7-7-7-7-7-7-7-7-7-7-7-7-7--|
D#---------------------------------------------------------------------------------------|

PRE CHORUS:
F#------------------------------------------------------|
C#------------------------------------------------------|
G#--3-2-1-0--2-0-2-3--0--3-2--3-2-1-0--2-0-2-3--0--3-2--|
D#------------------------------------------------------|

F#---------------------------------------------------------------|
C#---------------------------------------------------------------|
G#--5-4-3-2--4-2-4-5--2--5-4--5-4-2-3--5-3-5-6-7--5-5-7-5-7-8-9--|
D#---------------------------------------------------------------|

CHORUS:
F#-----------------------------------------------------------|
C#-----------------------------------------------------------|
G#-----------------------------------------------------------|
D#--0-0--2-0-2-3--0--3-2--3-2-1-0--2-0-2-3--0--3-2--3-2-1-0--|

F#----------------------------------------------------|
C#----------------------------------------------------|
G#----------------------------------------------------|
D#--2-0-2-3--0--3-2--3-2-1-0--2-0-2-3--0--3-2--3-2-1--|

VERSE #2
PRE CHORUS #2

CHORUS #2:
F#-----------------------------------------------------------|
C#-----------------------------------------------------------|
G#-----------------------------------------------------------|
D#--0-0--2-0-2-3--0--3-2--3-2-1-0--2-0-2-3--0--3-2--3-2-1-0--|

F#----------------------------------------------------|
C#----------------------------------------------------|
G#----------------------------------------------------|
D#--2-0-2-3--0--3-2--3-2-1-0--2-0-2-3--0--------------|

PRE SOLO PART:
F#----------------------------------------------------------------------|
C#----------------------------------------------------------------------|
G#--1-0-----------------------------------------------------------------|
D#------4-3-33-3-3-3-33-33-3-33-33-3--6-0-1-3-33-3-3-3-33-33-3-33-33-3--| x2

F#---------------------------------------------------------------------|
C#---------------------------------------------------------------------|
G#--3-2-1-0-00-0-0-0-00-00-0-00-00-0--3--------------------------------|
D#--------------------------------------2-3-5-55-55-5-55-55-5-55-55-5--|

F#----------------------------------------------------------------------------|
C#----------------------------------------------------------------------------|
G#--1-0-----------------------------------------------------------------1-0---|
D#------4-3-33-3-3-3-33-33-3-33-33-3--6-0-1-3-33-3-3-3-33-33-3-33-33-3------4-|

SOLO:
F#---------------------------------------------------------------------------------|
C#----------------------------------------------------------111-222-333-444-55-66--|
G#-----------------------------11111111-2222-3333-4444-5555------------------------|
D#--33333333-44444444-55555555-----------------------------------------------------|

F#-------------------------------------------------|
C#-------------------------------------------------|
G#--0-0-0------------3-2-1--0-0-0------------------|
D#--------0-3-5-5-5---------------0-3-5-5-5--3-2-1-|

F#------------------------------------------------|
C#------------------------------------------------|
G#-----------------------------------------3--2-1-|
D#--0-0-0-0-0-0-0-0-3--2-1-0-0-0-0-0-0-0-0--------|

F#-------------------------------------------------|
C#-------------------------------------------------|
G#--0-0-0------------3-2-1--0-0-0------------------|
D#--------0-3-5-5-5---------------0-3-5-5-5--3-2-1-|

F#------------------------------------------------|
C#------------------------------------------------|
G#-----------------------------------------5--4-3-|
D#--0-0-0-0-0-0-0-0-3--2-1-0-0-0-0-0-0-0-0--------|

F#------------------------------------------------------------|
C#------------------------------------------------------------|
G#--2-2-2-2-2-2-2-2-2-2-2-5--4-3-2-2-2-2-2-2-2-2-2-2-2-2-5--4-|
D#------------------------------------------------------------|

F#-----------------------------------------|
C#-----------------------------------------|
G#--2-3--5-3-5-6-7--5-5-7-5-7-8-9----------|
D#-----------------------------------------|

MAIN RIFF (ENDING):
F#-------------------------------------------------------|
C#-------------------------------------------------------|
G#-------------------------------------------------------|
D#--0--2-0-2-3--0--3-2--3-2-1-0--2-0-2-3--0--3-2--3-2-1--| x 4

F#---------------------|
C#---------------------|
G#-----------7-7-------|
D#--0------0-0-0-------|
            
Submit corrections

comments powered by Disqus
↑ Back to top | Slashs Snakepit Bass for Speed Parade. Lyrics for acoustic guitar and electric guitar. Tablatures and chords are parodies/interpretations of the original songs. You may use it for private study, scholarship, research or language learning purposes only