>
 >
Serial Killer 1

Serial Killer 1 Guitar Tabs

Slashs Snakepit - Serial Killer 1 chords, tabs, tablatures, lyrics

Guitar lessons | Add/correct | Request | Top 50 tabs Artists:  A B C D E F G H I J K L M N O P Q R S T U V W X Y Z 0-9

Serial Killer 1 Guitar Tabs – Slashs Snakepit

CD, Sheet music, Poster

Do you like Serial Killer 1? Share with your friends now
TabsTabs v2
Serial Killer
Written by
SLASH's Snakepit


|----------------------------------------------------------------------------|
|----------------------------------------------------------------------------|
|-------------------------------------------------------------------10-9-8-7-|
|-7-7-7--7-7-7------7-7-7--7-7-7------7-7-7--7-7-7--7-7-7--7-7-7----10-9-8-7-|
|-7-6-7--7-6-7------7-6-7--7-6-7------7-6-7--7-6-7--7-6-7--7-6-7----8--7-6-5-|
|-5------5----------5------5----------5------5------5------5-----------------|

|--------------------------------------------------1-----1---------------------|
|----------------------------------------------------1-----1-------------------|
|---7-7----7-7----7-7--10--9--8--7-7-7--7--6--4--3-----3--------------7--------|
|-7-6-7--7-6-7--7-6-7--10--9--8--7-6-7--7--6--4--3-----------2--------7------3-|
|-5------5------5------8---7--6--5------5--4--3--1--------------3--0--5----4---|
|------------------------------------------------------------------------5-----|

|------------------------------------------------------------------------------|
|-----------------------------------------------------------------------10-----|
|---7-7----7-7----7-7--10--9--8--7-7-7--7--6--4--3-----1--------------7--9b11--|
|-7-6-7--7-6-7--7-6-7--10--9--8--7-6-7--7--6--4--3--2-----2--2--------7--------|
|-5------5------5------8---7--6--5------5--4--3--1--------------3--0--5--------|
|------------------------------------------------------------------------------|

|---------------------------------------------------------------|
|-----6---------6---------6-------------3--------3--------3-----|
|-----7---------7---------7-------------3--------3--------3-----|
|-----7--6h7----7--6h7----7-6h7---------3-2h3----3-2h3----3-2h3-|
|-5-5---------5--------5-----------1-1---------1--------1-------|
|---------------------------------------------------------------|

   |------------------------------------1---0h1---8--------8-------|
   |-----6-----------6---------8----------1-----1---8--6h8---8-6-5-|
   |-----5h7---5-----5h7-----5-7b9-5--3----------------------------|
   |-----7-------7---7---6h7----------3----------------------------|
   |-5-5-----5-----5------------------1----------------------------|
   |---------------------------------------------------------------|

|-------------------------3-1------------1--------1-----1-------------------------|
|----------------------1-------8-6-5-3-----1--------1-----1-----------------------|
|----2-0--2-0-2-3-2-0--0---------------3-----3--3------3----3-9-9-9-9--14-12-10-9-|
|-3--------------------2---------------3--------3-------------9-9-9-9--14-12-10-9-|
|-3--------------------3---------------1--------1-------------7-7-7-7--12-10-8--7-|
|-1-----------------------------------------------------------0-0-0-0-------------|

                   |---------------------------------|
                   |---------------------------------|
                   |-7-6-5-3--3-3--5--5-5-5--5-5-5---|
                   |-7-6-5-3--3-3--5--5-5-5--5-5-5---|
                   |-5-4-3-1--1-1--3--3-3-3--3-3-3---|
                   |---------------------------------|

        |---------------------------------------------|
        |---------------------------------------------|
        |-2-2-2-2-2-2-2--4-4-4-4-4-4-4--7-7-7-7-7-7-7-|
        |-2-2-2-2-2-2-2--4-4-4-4-4-4-4--7-7-7-7-7-7-7-|
        |-0-0-0-0-0-0-0--2-2-2-2-2-2-2--5-5-5-5-5-5-5-|
        |---------------------------------------------|





Comments


Popular Slashs Snakepit tabs & chords
Landslide Bass Tabs
Been There Lately 1 Tabs
Beggars And Hangers On Intro 1 Tabs
Jizz Da Pitt Tabs
Landslide Tabs
Monkey Chow Tabs
Some City Ward Tabs
Take It Away 1 Tabs
Truth Tabs
Speed Parade Ukulele


Song lyrics



↑ Back to top | Tablatures and chords are parodies/interpretations of the original songs. You may use it for private study, scholarship, research or language learning purposes only
© 2014 AZChords.com Contact us | Privacy policy | DMCA | Add/correct tabs | Request tabs | Top 50 tabs