» » »

Mean Bone Bass tabs (ver.1)

Artists:  A B C D E F G H I J K L M N O P Q R S T U V W X Y Z # 

Mean Bone Bass tabs (ver.1)

Slashs Snakepit
Rating:
5/5 (1 vote)

Hard to play? Try these video lessons and learn fast.
                MEAN BONE (Bassline)
As recorded by Slash's Snakepit
(From the 2000 Album AIN'T LIFE GRAND)

Words and Music by Slash's Snakepit
Arranged by Slash's Snakepit

Gtr I (Eb Ab Db Gb) - 'Johnny G.'

 Intro
  Q=120
 4/4
  Gtr I
|-----------------|------------|---------------|---------------|
|-----------------|------------|---------------|---------------|
|-(2)---(2)---0-2-|--2-0-2-----|-2--0-2--2-0-2-|--2-0-2--------|
|-----------------|------------|---------------|--------0--2---|


|---------------|------------|---------------|---------------|
|---------------|------------|---------------|---------------|
|-2--0-2--2-0-2-|--2-0-2-----|-2--0-2--2-0-2-|--2-0-2----0---|
|---------------|------------|---------------|--------0------|


|---------------|---------4h6p4-(4)-|---------------|----------7-7h9-(9)--|
|---------------|-------------------|---------------|--------9------------|
|-2--0-2--2-0-2-|--2-0-2------------|-2--0-2--2-0-2-|--2-0-2--------------|
|---------------|-------------------|---------------|---------------------|


|---------------|--------------|---------------|---------4h6p4-(4)-|
|---------------|--------------|---------------|-------------------|
|-2--0-2--2-0-2-|--2-0-2-------|-2--0-2--2-0-2-|--2-0-2------------|
|---------------|--------0--2--|---------------|-------------------|


|---------------|--------9h11-(11)---|---------------|--------9h11--9-|
|---------------|--------------------|---------------|----------------|
|-2--0-2--2-0-2-|--2-0-2-------------|-2--0-2--2-0-2-|--2-0-2---------|
|---------------|--------------------|---------------|----------------|


                                        HQ=130
|---------------|-----------|---------|----|
|---------------|-----------|---------|----|
|-2--0-2--2-0-2-|--2-0-2----|-2--0-2--|----|
|---------------|-----------|---------|----|


 Main Riff
|----------------|---------------|---------------|----------------|
|----------------|---------------|---------------|----------------|
|-2-2-0-2--2-0-2-|--2-0-2--2-0-2-|--2-0-2--2-0-2-|--2-0-2--2-2-0--|
|----------------|---------------|---------------|----------------|


|----------------|---------------|---------------|---------------|
|----------------|---------------|---------------|---------------|
|-2-2-0-2--2-0-2-|--2-0-2--2-0-2-|--2-0-2--2-0-2-|--5------------|
|----------------|---------------|---------------|----5-0-(0)----|


   Verse
                                                                    5x
||-----------------|---------------|---------------|----------------||
||o----------------|---------------|---------------|---------------o||
||o-2-2-0-2--2-0-2-|--2-0-2--2-0-2-|--2-0-2--2-0-2-|--5------------o||
||-----------------|---------------|---------------|----5-0-(0)-----||


|---------------|---------------------|----------------|----------------|
|---------------|---------------------|----------------|----------------|
|-5--5--5-4-5-7-|-(7)--7--7-----------|-2-2-0-2--2-0-2-|--2-0-2--2-0-2--|
|---------------|------------7/-(17)\-|----------------|----------------|


|---------------|----------------|-------------------|------------------|
|---------------|----------------|-------------------|------------------|
|-5--5--5-4-5-7-|-(7)--(7)-(7)---|-------------------|------------------|
|---------------|--------------0-|-(0)-0-1-1-2-2-3-3-|-4-4-5-5-5--6-7---|


   Chorus
||------------------|-----------------|-----------------|------------------||
||o-----------------|-----------------|-----------------|-----------------o||
||o-----------------|-----------------|-----------------|-----------------o||
||--7-7-7-7-7-7-7-7-|-7-7-7-7-7-7-7-7-|-7-7-7-7-7-7-7-7-|-7-7-7-7-7-7-7-7--||


 Interlude
|-----------------|---------------|-----------------|-----------------|
|-----------------|---------------|-----------------|-----------------|
|-----------------|---------------|-----------------|-----------------|
|-7-7-7-7-7-7-7-7-|-7-7-7-7-7--7\-|-7-7-7-7-7-7-7-7-|-7-7-7-7-0-(0)---|


   Verse
||-----------------|---------------|---------------|----------------||
||o----------------|---------------|---------------|---------------o||
||o-2-2-0-2--2-0-2-|--2-0-2--2-0-2-|--2-0-2--2-0-2-|--5------------o||
||-----------------|---------------|---------------|----5-0-(0)-----||


|---------------|---------------------|----------------|----------------|
|---------------|---------------------|----------------|----------------|
|-5--5--5-4-5-7-|-(7)--7--7-----------|-2-2-0-2--2-0-2-|--2-0-2--2-0-2--|
|---------------|------------7/-(17)\-|----------------|----------------|


|---------------|----------------|-------------------|------------------|
|---------------|----------------|-------------------|------------------|
|-5--5--5-4-5-7-|-(7)--(7)-(7)---|-------------------|------------------|
|---------------|--------------0-|-(0)-0-1-1-2-2-3-3-|-4-4-5-5-5--6-7---|


   Chorus
||------------------|-----------------|-----------------|------------------||
||o-----------------|-----------------|-----------------|-----------------o||
||o-----------------|-----------------|-----------------|-----------------o||
||--7-7-7-7-7-7-7-7-|-7-7-7-7-7-7-7-7-|-7-7-7-7-7-7-7-7-|-7-7-7-7-7-7-7-7--||


 Interlude
|-----------------|---------------|-----------------|-----------------|
|-----------------|---------------|-----------------|-----------------|
|-----------------|---------------|-----------------|-----------------|
|-7-7-7-7-7-7-7-7-|-7-7-7-7-7--7\-|-7-7-7-7-7-7-7-7-|-7-7-7-7-0-(0)---|


 Guitar Solo
|----------------|---------------|---------------|----------------|
|----------------|---------------|---------------|----------------|
|-4-4-2-4--4-2-4-|--4-2-4--4-2-4-|--4-2-4--4-2-4-|--4-2-4--4-4-2--|
|----------------|---------------|---------------|----------------|


|----------------|---------------|---------------|--------------------|
|----------------|---------------|---------------|--------------------|
|-4-4-2-4--4-2-4-|--4-2-4--4-2-4-|--4-2-4--4-2-0-|-(0)-0-1-1-2-2-3-3--|
|----------------|---------------|---------------|--------------------|


|----------------|----------------|---------------|----------------|
|----------------|----------------|---------------|----------------|
|-4-4-5-5-5--6-7-|-7-7-5-7--7-5-7-|--7-5-7--7-5-7-|--7-5-7--7-5-7--|
|----------------|----------------|---------------|----------------|


|---------------|---------------|---------------|----------------|
|---------------|---------------|---------------|----------------|
|--7-5-7--7-5-7-|--7-5-7--7-5-7-|--7-5-7--7-5-7-|--7-5-7--7-5----|
|---------------|---------------|---------------|-------------0--|


|-------------------|----------------|
|-------------------|----------------|
|-------------------|----------------|
|-(0)-0-1-1-2-2-3-3-|-4-4-5-5-5--6-7-|


   Out-Chorus
                                                                           4x
||------------------|-----------------|-----------------|------------------||
||o-----------------|-----------------|-----------------|-----------------o||
||o-----------------|-----------------|-----------------|-----------------o||
||--7-7-7-7-7-7-7-7-|-7-7-7-7-7-7-7-7-|-7-7-7-7-7-7-7-7-|-7-7-7-7-7-7-7-7--||


   Outro
                                     3x
||------------------|----------------||-----------------|---------------|
||o-----------------|---------------o||-----------------|---------------|
||o-----------------|---------------o||-----------------|---------------|
||--7-7-7-7-7-7-7-7-|-7-7-7-7-7--7\--||-7-7-7-7-7-7-7-7-|-7-7-7-7-7-5-0-|


|------------|------------|--------*|
|------------|------------|--------*|
|------------|------------|--------*|
|-(0)--------|-(0)--------|-(0)----*|


Tablature Legend
----------------
 h   - hammer-on
 p   - pull-off
 b   - bend
 pb  - pre-bend
 r   - bend release (if no number after the r, then release immediately)
 /\  - slide into or out of (from/to "nowhere")
 s   - legato slide
 S   - shift slide
  - natural harmonic
[n]  - artificial harmonic
n(n) - tapped harmonic
 ~   - vibrato
 tr  - trill
 T   - tap
 TP  - trem. picking
 PM  - palm muting
\n/  - tremolo bar dip; n = amount to dip
 \n  - tremolo bar down
 n/  - tremolo bar up
/n\  - tremolo bar inverted dip
 =   - hold bend; also acts as connecting device for hammers/pulls
 <>  - volume swell (louder/softer)
 x   - on rhythm slash represents muted slash
 o   - on rhythm slash represents single note slash

Misc Legend
-----------
 |  - bar
||  - double bar
||o - repeat start
o|| - repeat end
*|  - double bar (ending)
 :  - bar (freetime)
 $  - Segno
 &  - Coda
Tempo markers -  = BPM(8/16=s8/s16), where s8 = swing 8ths, s16 = swing 16ths
            
Hard to play? Try these video lessons and learn fast. | Correct




comments powered by Disqus
↑ Back to top | Tablatures and chords are parodies/interpretations of the original songs. You may use it for private study, scholarship, research or language learning purposes only