>
 >
Lower

Lower Guitar Tabs

Slashs Snakepit - Lower chords, tabs, tablatures, lyrics

Guitar lessons | Add/correct | Request | Top 50 tabs Artists:  A B C D E F G H I J K L M N O P Q R S T U V W X Y Z 0-9

Lower Guitar Tabs – Slashs Snakepit

CD, Sheet music, Poster

Do you like Lower? Share with your friends now
TabsTabs v2Tabs v3
e----0------3---|
B----1------5---|
G----0------2---|
D---------------|
A---------------|
E---------------|

intro:
e-------------------------------------------------------------|
B-------------------------------------------------------------|
G-------------------------------------------------------------|
D--------2-----2--------------2--4--5--5--5--5--5--4--2--4--2-|
A--4--4-----4-----4--2--4---4---------------------------------|
E-------------------------------------------------------------|

e-------------------------------------------|
B-------------------------------------------|
G-------------------------------------------|
D----------------2--------------------------|
A--2--2--4--2--4---4--------------4---------|
E----------------------2--0--2--0-----------|

verse 1
e------0---2------------------3------|
B----2---2---2-----------5------5----|
G---------------------2-----2--------|   x4
D------------------------------------|
A------------------------------------|
E------------------------------------|


chorus

e------------------------      -----------------------|
B--7--7--7--7--7--7--7--5      ----6--6--6--5---------|
G------------------------  x3  -----------------------|
D------------------------      -----------------------|
A------------------------      -------------------2/4-|
E------------------------      -----------------------|

verse 2

e--0---3-----0---2------------3--------0---2------------3---|
B--2---5---2---2---2-------5----5----2---2---2------5-----5-|
G--0---2-----------------2---2--------------------2---2-----|
D-----------------------------------------------------------|
A-----------------------------------------------------------|
E-----------------------------------------------------------|

e----0---2------------3---|
B--2---2---2-------5----5-|
G----------------2---2----|
D-------------------------|
A-------------------------|
E-------------------------|

chorus

e------------------------      -----------------------|
B--7--7--7--7--7--7--7--5      ----6--6--6--5---------|
G------------------------  x3  -----------------------|
D------------------------      -----------------------|
A------------------------      -------------------2/4-|
E------------------------      -----------------------|


c


Solo 1:

e------------------------------------------------------------|
B------------------------------------------------------------|
G-----------------------------------------------4(4)---------|
D---5(5)--2--4--2-----------2--2-----4--2--4/6-------4--2--4-|
A-------------------4--2--4------4---------------------------|
E------------------------------------------------------------|

e------------------------------------------|
B------------------------------------------|
G------------------------------------------|
D--2--4-----2--4--2--4--2--4--2------------|
A--------4-----------------------4--2--2/4-|
E------------------------------------------|

verse3
e------0---2------------------3------|
B----2---2---2-----------5------5----|
G---------------------2-----2--------|   x2
D------------------------------------|
A------------------------------------|
E------------------------------------|

chorus

e------------------------      -----------------------|
B--7--7--7--7--7--7--7--5      ----6--6--6--5---------|
G------------------------  x3  -----------------------|
D------------------------      -----------------------|
A------------------------      -------------------2/4-|
E------------------------      -----------------------|

e------------------------      -----------------------|
B--7--7--7--7--7--7--7--5      ----6--6--6--5---------|
G------------------------  x3  -----------------------|
D------------------------      -----------------------|
A------------------------      -------------------2/4-|
E------------------------      -----------------------|

e-------------------------------------------------------------|
B-------------------------------------------------------------|
G-------------------------------------------------------------|
D--------2-----2--------------2--4--5--5--5--5--5--4--2--4--2-|
A--4--4-----4-----4--2--4---4---------------------------------|
E-------------------------------------------------------------|

e-------------------------------------------|
B-------------------------------------------|
G-------------------------------------------|
D----------------2--------------------------|  x2
A--2--2--4--2--4---4--------------4---------|
E----------------------2--0--2--0-----------|

Solo 2

e--15(15)--15--14--12-----12----------14--19-19-19-18-15----|
B----------------------14---14/17--17--------------------16-|
G-----------------------------------------------------------|
D-----------------------------------------------------------|
A-----------------------------------------------------------|
E-----------------------------------------------------------|

e----16----------------------------------------------------|
B--16--16-14-16--------------15---18-18--15---18-18--15----|
G----------------17-15---15----17-----------17----------17-|
D----------------------17----------------------------------|
A----------------------------------------------------------|
E----------------------------------------------------------|

e-18-17-15-18-17-15----------------------------------------------|
B-------------------18-17-15-18-17-18-17-15-18-15-15-15-18-15-15-|
G-------------------------------------------------17----------17-|
D----------------------------------------------------------------|
A----------------------------------------------------------------|
E----------------------------------------------------------------|

e------------------------------------------------------|
B------------------------------------------------------|
G--17-15-17-15---15------------------------------------|
D--------------16---16-14-16-14-------------16--14(14--|
A-------------------------------16-14-14/16------------|
E------------------------------------------------------|

e--0---2----------3---------0---2------------3---|
B-2--2--2------5----5-----2---2---2-------5----5-|
G------------2---2----------------------2---2----|
D------------------------------------------------|
A------------------------------------------------|
E------------------------------------------------|





Comments


Popular Slashs Snakepit tabs & chords
Speed Parade Chords
Back To The Moment Tabs
Been There Lately Tabs
Beggars And Hangers On Intro 3 Tabs
Jizz Tabs
Lower 1 Tabs
Mean Bone Tabs
Neither Can I Tabs
Serial Killer Tabs
Taman Astakona Ukulele


Song lyrics



↑ Back to top | Tablatures and chords are parodies/interpretations of the original songs. You may use it for private study, scholarship, research or language learning purposes only
© 2014 AZChords.com Contact us | Privacy policy | DMCA | Add/correct tabs | Request tabs | Top 50 tabs