» » »

Slashs Snakepit, Lower Tabs (ver.1)

Artists:  A B C D E F G H I J K L M N O P Q R S T U V W X Y Z # 

Lower Tabs (ver.1)

Slashs Snakepit Tabs
 Rating:
4/5 (4 votes)
Lower lessons Tabs too difficult? Try these video lessons and learn fast
                e----0------3---|
B----1------5---|
G----0------2---|
D---------------|
A---------------|
E---------------|

intro:
e-------------------------------------------------------------|
B-------------------------------------------------------------|
G-------------------------------------------------------------|
D--------2-----2--------------2--4--5--5--5--5--5--4--2--4--2-|
A--4--4-----4-----4--2--4---4---------------------------------|
E-------------------------------------------------------------|

e-------------------------------------------|
B-------------------------------------------|
G-------------------------------------------|
D----------------2--------------------------|
A--2--2--4--2--4---4--------------4---------|
E----------------------2--0--2--0-----------|

verse 1
e------0---2------------------3------|
B----2---2---2-----------5------5----|
G---------------------2-----2--------|   x4
D------------------------------------|
A------------------------------------|
E------------------------------------|


chorus

e------------------------      -----------------------|
B--7--7--7--7--7--7--7--5      ----6--6--6--5---------|
G------------------------  x3  -----------------------|
D------------------------      -----------------------|
A------------------------      -------------------2/4-|
E------------------------      -----------------------|

verse 2

e--0---3-----0---2------------3--------0---2------------3---|
B--2---5---2---2---2-------5----5----2---2---2------5-----5-|
G--0---2-----------------2---2--------------------2---2-----|
D-----------------------------------------------------------|
A-----------------------------------------------------------|
E-----------------------------------------------------------|

e----0---2------------3---|
B--2---2---2-------5----5-|
G----------------2---2----|
D-------------------------|
A-------------------------|
E-------------------------|

chorus

e------------------------      -----------------------|
B--7--7--7--7--7--7--7--5      ----6--6--6--5---------|
G------------------------  x3  -----------------------|
D------------------------      -----------------------|
A------------------------      -------------------2/4-|
E------------------------      -----------------------|


c


Solo 1:

e------------------------------------------------------------|
B------------------------------------------------------------|
G-----------------------------------------------4(4)---------|
D---5(5)--2--4--2-----------2--2-----4--2--4/6-------4--2--4-|
A-------------------4--2--4------4---------------------------|
E------------------------------------------------------------|

e------------------------------------------|
B------------------------------------------|
G------------------------------------------|
D--2--4-----2--4--2--4--2--4--2------------|
A--------4-----------------------4--2--2/4-|
E------------------------------------------|

verse3
e------0---2------------------3------|
B----2---2---2-----------5------5----|
G---------------------2-----2--------|   x2
D------------------------------------|
A------------------------------------|
E------------------------------------|

chorus

e------------------------      -----------------------|
B--7--7--7--7--7--7--7--5      ----6--6--6--5---------|
G------------------------  x3  -----------------------|
D------------------------      -----------------------|
A------------------------      -------------------2/4-|
E------------------------      -----------------------|

e------------------------      -----------------------|
B--7--7--7--7--7--7--7--5      ----6--6--6--5---------|
G------------------------  x3  -----------------------|
D------------------------      -----------------------|
A------------------------      -------------------2/4-|
E------------------------      -----------------------|

e-------------------------------------------------------------|
B-------------------------------------------------------------|
G-------------------------------------------------------------|
D--------2-----2--------------2--4--5--5--5--5--5--4--2--4--2-|
A--4--4-----4-----4--2--4---4---------------------------------|
E-------------------------------------------------------------|

e-------------------------------------------|
B-------------------------------------------|
G-------------------------------------------|
D----------------2--------------------------|  x2
A--2--2--4--2--4---4--------------4---------|
E----------------------2--0--2--0-----------|

Solo 2

e--15(15)--15--14--12-----12----------14--19-19-19-18-15----|
B----------------------14---14/17--17--------------------16-|
G-----------------------------------------------------------|
D-----------------------------------------------------------|
A-----------------------------------------------------------|
E-----------------------------------------------------------|

e----16----------------------------------------------------|
B--16--16-14-16--------------15---18-18--15---18-18--15----|
G----------------17-15---15----17-----------17----------17-|
D----------------------17----------------------------------|
A----------------------------------------------------------|
E----------------------------------------------------------|

e-18-17-15-18-17-15----------------------------------------------|
B-------------------18-17-15-18-17-18-17-15-18-15-15-15-18-15-15-|
G-------------------------------------------------17----------17-|
D----------------------------------------------------------------|
A----------------------------------------------------------------|
E----------------------------------------------------------------|

e------------------------------------------------------|
B------------------------------------------------------|
G--17-15-17-15---15------------------------------------|
D--------------16---16-14-16-14-------------16--14(14--|
A-------------------------------16-14-14/16------------|
E------------------------------------------------------|

e--0---2----------3---------0---2------------3---|
B-2--2--2------5----5-----2---2---2-------5----5-|
G------------2---2----------------------2---2----|
D------------------------------------------------|
A------------------------------------------------|
E------------------------------------------------|
            
Submit corrections

comments powered by Disqus
↑ Back to top | Slashs Snakepit Tabs for Lower. Lyrics for acoustic guitar and electric guitar. Tablatures and chords are parodies/interpretations of the original songs. You may use it for private study, scholarship, research or language learning purposes only