» » »

Slashs Snakepit, Just Like Anything Tabs (ver.1)

Artists:  A B C D E F G H I J K L M N O P Q R S T U V W X Y Z # 

Just Like Anything Tabs (ver.1)

Slashs Snakepit Tabs
Rating:
0/5 (0 votes)
Just Like Anything lessons Tabs too difficult? Try these video lessons and learn fast
                "Just Like Anything"
(As recorded by Slash's Snakepit on "Ain't Life Grand")
Tune your guitar flat!!!

Intro: (00:00 - 00:32)
=================================================================================================
Slash

 part1 (repeat 11x)       part2 (play once after part1)
|-----------------------||-----------------------------|
|-----------------------||-----------------------------|
|-----------------------||-----------------------------|
|-----5---5---5---5---5-||-----5---5---5---5---5-------|
|---5---5---5---5---5---||---5---5---5---5---5---------|
|-3---------------------||-3---------------------15\sl-|

Ryan Roxie/Keri Kelli

 part1 (repeat 4x)  part2 (repeat 4x after part1) 
|-----------------||---------------------------------|
|-----6---6---6---||-----6---6---6-------5---5---5---|
|---7---7---7---7-||---7---7---7---7---5---5---5---5-|
|-5---------------||-5---------------5---------------|
|-----------------||---------------------------------|
|-----------------||---------------------------------|

=================================================================================================
=================================================================================================

Interlude (00:32 - 00:54)
=================================================================================================

 main riff
|-------------------------------------------------------|
|-------------------------------------------------------|
|-------------------------------------------------------|
|-------------------------------------------------------|
|-----------0-1-2-3-0-1-2-----------------0-1-2-3-0-1---|
|-3-0-1-2-3---------------3-0-1-3-0-1-2-3-------------3-|

 riff2
|-----------------------------------------------|
|-5-6-X-X-X-6-5-X-X-X-X-X-3-3-3-3-------5-X-3---|
|-5-7-X-X-X-7-5-X-X-X-X-X-3-5-3-5-P-3---5-X-3---|
|-----X-X-X-----X-X-X-X-X-------------5-------5-|
|-----------------------------------------------|
|-----------------------------------------------|

Slash: repeat main riff 4 times
Ryan Roxie/Keri Kelli: main riff 2x; riff2 2x

=================================================================================================
=================================================================================================

Verse (00:54 - 01:15)
=================================================================================================

Slash & Ryan Roxie/Keri Kelli

|------------------------------------------------------------------------------------------|
|------------------------------------------------------------------------------------------|
|------------------------------------------------------------------------------------------|
|----------------5-3---------------5-3---------------------5---3---------------------5---3-|
|-5--------------3-1---------------3-1-----------X-X-5-5---3-X-1-----------X-X-5-5---3-X-1-|
|-3-0-1-2-3\sl-------3-3-0-1-3\sl------3-0-1-2-3-X-X-3-3-X---X---3-0-1-2-3-X-X-3-3-X---X---|

|-----------------------------------------|
|-----------------------------------------|
|-----------------------------------------|
|---------------------5---3------------5--|
|-----------X-X-5-5---3-X-1------------3--|
|-3-0-1-2-3-X-X-3-3-X---X---3-0-1-2-3-----|

=================================================================================================
=================================================================================================

Interlude 2 (01:15 - 01:26)
=================================================================================================

 main riff
|-------------------------------------------------------|
|-------------------------------------------------------|
|-------------------------------------------------------|
|-------------------------------------------------------|
|-----------0-1-2-3-0-1-2-----------------0-1-2-3-0-1---|
|-3-0-1-2-3---------------3-0-1-3-0-1-2-3-------------3-|

Slash: main riff 2x
Ryan Roxie/Keri Kelli: main riff 2x

=================================================================================================
=================================================================================================

Verse (01:26 - 01:47)
=================================================================================================

Slash & Ryan Roxie/Keri Kelli

|------------------------------------------------------------------------------------------|
|------------------------------------------------------------------------------------------|
|------------------------------------------------------------------------------------------|
|----------------5-3---------------5-3---------------------5---3---------------------5---3-|
|-5--------------3-1---------------3-1-----------X-X-5-5---3-X-1-----------X-X-5-5---3-X-1-|
|-3-0-1-2-3\sl-------3-3-0-1-3\sl------3-0-1-2-3-X-X-3-3-X---X---3-0-1-2-3-X-X-3-3-X---X---|

|-----------------------------------------|
|-----------------------------------------|
|-----------------------------------------|
|---------------------5---3------------5--|
|-----------X-X-5-5---3-X-1------------3--|
|-3-0-1-2-3-X-X-3-3-X---X---3-0-1-2-3-----|

=================================================================================================
=================================================================================================

Chorus (01:47 - 02:08)
=================================================================================================

Slash

 part1 (repeat 7x)       part2 (play once after part1)
|-----------------------||----------|
|-----------------------||----------|
|-----------------------||---8------|
|-----5---5---5---5---5-||---8------|
|---5---5---5---5---5---||---6------|
|-3---------------------||----------|

Ryan Roxie/Keri Kelli

 part1 (repeat 3x)                  part2 (play once after part1)
|---------------------------------||-----------------------|
|-----6---6---6-------5---5---5---||-----6---6---6---6-----|
|---7---7---7---7---5---5---5---5-||---7---7---7---7---6---|
|-5---------------5---------------||-5---------------------|
|---------------------------------||-----------------------|
|---------------------------------||-----------------------|

=================================================================================================
=================================================================================================

Interlude 3 (Harp Solo & Guitar Solo) (02:08 - 02:29)
=================================================================================================

 main riff
|-------------------------------------------------------|
|-------------------------------------------------------|
|-------------------------------------------------------|
|-------------------------------------------------------|
|-----------0-1-2-3-0-1-2-----------------0-1-2-3-0-1---|
|-3-0-1-2-3---------------3-0-1-3-0-1-2-3-------------3-|

Slash: main riff 4x
Ryan Roxie/Keri Kelli: main riff 4x

Solo

|-------------------------------------------------------------------------|
|-8----------------11--------------------3--------------------------------|
|-10-b(12)-9-b(10)hold-rb(9)-7--7-5-b(7)hold-rb(5)-p3-5-3------5---3^(4)--|
|---------------------------------------------------------5-p3---5-3^(4)--|
|-------------------------------------------------------------------------|
|-------------------------------------------------------------------------|

|------------------------------------------3-----------------------|
|-8----------------11--------------------3-------------------------|
|-10-b(12)-9-b(10)hold-rb(9)-7----7-5-b(7)hold-rb(5)-p3-5-3--5-3-0-|
|------------------------------10----------------------------5-3-0-|
|------------------------------------------------------------------|
|------------------------------------------------------------------|

=================================================================================================
=================================================================================================

Verse (02:29 - 02:51)
=================================================================================================

Slash & Ryan Roxie/Keri Kelli

|------------------------------------------------------------------------------------------|
|------------------------------------------------------------------------------------------|
|------------------------------------------------------------------------------------------|
|----------------5-3---------------5-3---------------------5---3---------------------5---3-|
|-5--------------3-1---------------3-1-----------X-X-5-5---3-X-1-----------X-X-5-5---3-X-1-|
|-3-0-1-2-3\sl-------3-3-0-1-3\sl------3-0-1-2-3-X-X-3-3-X---X---3-0-1-2-3-X-X-3-3-X---X---|

|-----------------------------------------|
|-----------------------------------------|
|-----------------------------------------|
|---------------------5---3------------5--|
|-----------X-X-5-5---3-X-1------------3--|
|-3-0-1-2-3-X-X-3-3-X---X---3-0-1-2-3-----|

=================================================================================================
=================================================================================================

Interlude 4 (Guitar Solo) (02:51 - 03:01)
=================================================================================================

 main riff
|-------------------------------------------------------|
|-------------------------------------------------------|
|-------------------------------------------------------|
|-------------------------------------------------------|
|-----------0-1-2-3-0-1-2-----------------0-1-2-3-0-1---|
|-3-0-1-2-3---------------3-0-1-3-0-1-2-3-------------3-|

Slash: main riff 2x
Ryan Roxie/Keri Kelli: main riff 2x

Solo

(not tabbed yet)

=================================================================================================
=================================================================================================

Chorus (03:01 - 03:25)
=================================================================================================

Slash

 part1 (repeat 7x)       part2 (play once after part1)
|-----------------------||-----------|
|-----------------------||-----------|
|-----------------------||---8--5----|
|-----5---5---5---5---5-||---8--5----|
|---5---5---5---5---5---||---6--3----|
|-3---------------------||-----------|

Ryan Roxie/Keri Kelli

 part1 (repeat 3x)                  part2 (play once after part1)
|---------------------------------||------------------------|
|-----6---6---6-------5---5---5---||-----6---6---6---6----5-|
|---7---7---7---7---5---5---5---5-||---7---7---7---7---6--5-|
|-5---------------5---------------||-5--------------------5-|
|---------------------------------||------------------------|
|---------------------------------||------------------------|

=================================================================================================
=================================================================================================

Bridge (03:25 - 03:47)
=================================================================================================

Slash

|------------------------------------------------------------------------------------|
|------------------------------------------------------------------------------------|
|------------------------------------------------------------------------------------|
|------------------------------------------------------------------------------------|
|------------------------------------------------------------------------------------|
|------------------------------------------------------------------------------------|

|------------------------------------------------------------------------------------|
|------------------------------------------------------------------------------------|
|------------------------------------------------------------------------------------|
|----------------5-3-------------------5-3-----------------5-3-------------------5-3-|
|-----------5-5--3-1--------------5-5--3-1------------5-5--3-1--------------5-5--3-1-|
|-3-0-1-2-3-3-3---------3-0-1-2-3-3-3-------3-0-1-2-3-3-3---------3-0-1-2-3-3-3------|

Ryan Roxie/Keri Kelli

|------------------------------------------------------------------------------------|
|------------------------------------------------------------------------------------|
|------------------------------------------------------------------------------------|
|----------------5-3-------------------5-3-----------------5-3-------------------5-3-|
|-----------5-5--3-1--------------5-5--3-1------------5-5--3-1--------------5-5--3-1-|
|-3-0-1-2-3-3-3---------3-0-1-2-3-3-3-------3-0-1-2-3-3-3---------3-0-1-2-3-3-3------|

|------------------------------------------------------------------------------------|
|------------------------------------------------------------------------------------|
|------------------------------------------------------------------------------------|
|----------------5-3-------------------5-3-----------------5-3-------------------5-3-|
|-----------5-5--3-1--------------5-5--3-1------------5-5--3-1--------------5-5--3-1-|
|-3-0-1-2-3-3-3---------3-0-1-2-3-3-3-------3-0-1-2-3-3-3---------3-0-1-2-3-3-3------|

=================================================================================================
=================================================================================================

Interlude + Outro (Guitar Solo) (03:47 - end)
=================================================================================================

 main riff
|-------------------------------------------------------|
|-------------------------------------------------------|
|-------------------------------------------------------|
|-------------------------------------------------------|
|-----------0-1-2-3-0-1-2-----------------0-1-2-3-0-1---|
|-3-0-1-2-3---------------3-0-1-3-0-1-2-3-------------3-|

Slash: main riff 6x
Ryan Roxie/Keri Kelli: main riff 6x

Solo

(not tabbed yet)
            

comments powered by Disqus
↑ Back to top | Slashs Snakepit Tabs for Just Like Anything. Lyrics for acoustic guitar and electric guitar. Tablatures and chords are parodies/interpretations of the original songs. You may use it for private study, scholarship, research or language learning purposes only