» » »

Slashs Snakepit, Jizz Da Pit Tabs (ver.1)

Artists:  A B C D E F G H I J K L M N O P Q R S T U V W X Y Z # 

Jizz Da Pit Tabs (ver.1)

Slashs Snakepit Tabs
Rating:
3/5 (5 votes)
Hard to play? Try these video lessons and learn fast.
                This is a tab of the Slash's Snakepit song Jizz da pit.

I've only tabbed the rhythm, I didn't bother to learn the solo seeing as the whole song 
just a jam session, and you should improvise over it, like Slash did.

The tuning is half step down.

Here is the first riff:

|-------------------------------------------------|
|-------------------------------------------------|
|-------------------------------------------------|
|--------------------------------------2--2-------|
|------------2--------2--------2-5-2-4----------2-|
|-12/-0--3h4---0--3h4---0--3h4--------------3h4---|

-----------------------------------------------|
-----------------------------------------------|
-----------------------------------------------|
-----------------------------------------------|
---------2--------2--------2-5-2-4-5--5-4h2h0--|
--0--3h4---0--3h4---0--3h4---------------------|

-----------------------------------------------|
-----------------------------------------------|
-----------------------------------------------|
-----------------------------------2--2--------|
---------2--------2--------2-5-2-4----------2--|
--0--3h4---0--3h4---0--3h4--------------3h4----|

---------------------------|
---------------------------|
-9-9--x-7-7--x-6-5-4-------|
-9-9--x-7-7--x-6-5-4-------|
-7-7--x-5-5--x-4-3-2-------|
----------------------3b4--|

Repeat all of this twice and then during the solo:

|-----------------------------------------------|
|-----------------------------------------------|
|-----------------------------------------------|
|-----------------------------------2--2--------|  2 times
|---------2--------2--------2-5-2-4----------2--|
|--0--3h4---0--3h4---0--3h4--------------3h4----|


|-----------------------------------------------|
|-----------------------------------------------|
|-----------------------------------2--2--------|  2 times
|---------2--------2--------2-5-2-4----------2--|
|--0--3h4---0--3h4---0--3h4--------------3h4----|
|-----------------------------------------------|

then

B B B Bb A A A Bb 4 times

E E E Eb D D D Eb 4 times

B B B Bb A A A Bb 2 times

E E E Eb D D D Eb 2 times

B B B Bb A A A Bb 3 times

B B B Bb A A A Bb B~~~~~~ E

Then it has the bass solo, and the riff for the next part of the song:

|------------------------------------|
|------------------------------------|
|------------------------------------|
|------------------------------------|
|-------7~~~-------5-----------------|
|--3b-0------0-3b4---3b4r3-2-0-------|


Have fun!
            

comments powered by Disqus
↑ Back to top | Slashs Snakepit Tabs for Jizz Da Pit. Lyrics for acoustic guitar and electric guitar. Tablatures and chords are parodies/interpretations of the original songs. You may use it for private study, scholarship, research or language learning purposes only