>
 >
Doin' Fine

Doin' Fine Guitar Tabs

Slashs Snakepit - Doin' Fine chords, tabs, tablatures, lyrics

Guitar lessons | Add/correct | Request | Top 50 tabs Artists:  A B C D E F G H I J K L M N O P Q R S T U V W X Y Z 0-9

Doin' Fine Guitar Tabs – Slashs Snakepit

CD, Sheet music, Poster

Do you like Doin' Fine? Share with your friends now
TabsTabs v2
Slash's Snakepit - Doin' Fine
Tuned half step down

Haven't tabbed the solo yet. I will finish it soon.
                                    
Intro	                           				
Eb----------------------------------------------------------------------|
Bb----------------------------------------------------------------------|
Gb-2-0-----5-2-----2-0-----------------------------------------2--------|
Db-----4-2-----4-2-----4-2-5-4---5-4h5p4p0-----0h1p0---------2-2--2-----|
Ab-----------------------------7-----------6p0-------3p0-3h4--------3p0-|
Eb----------------------------------------------------------------------|
  
-----------------------------------------------------------------------|
-----------------------------------------------------------------------|
-2-0-----5-2-----2-0-----------------------------------------2---------|
-----4-2-----4-2-----4-2-5-4-----------------0h1p0---------2-2---2-----|
-----------------------------7-6-5h6p5---5p0-------3p0-3h4---------3p0-|
---------------------------------------8-------------------------------|

-----------------------------------------------------------------------|
-----------------------------------------------------------------------|
-2-0-----5-2-----2-0-----------------------------------------2---------|
-----4-2-----4-2-----4-2-5-4-----------------0h1p0---------2-2---2-----|
-----------------------------7-6-5h6p5---5p0-------3p0-3h4---------3p0-|
---------------------------------------8-------------------------------|

-----------------------------------------------------------|-------------------------------|
-----------------------------------------------------------|------------/9~-----12--13--14-|
-2-0-----5-2-----2-0-----------------------------2---------|-------------------------------|
-----4-2-----4-2-----4-2-5-4--5-4-2--2---------2-2-------2-|-(2)--------/9~-----12--13--14-|
---------------------------------------3p0-3-4-----------2-|-(2)---------------(5)-(6)-(7)-|
-------------------------------------------------------3p0-|-(0)--------(0)----(3)-(4)-(5)-|




Chorus
---------------------------------------------------||
---------------------------------------------------||
-2~-2-0---------------------------2~---5b-2-0-----.||
--------2-----------------------2-----------------.||
(7)-------3b-0--------------3-4---------------3-0--||
(5)------------0-3-4-5--3-4------------------------||




Verse									   1
-------------------------------------------------------------------------||--------||
-------------------------------------------------------------------------||-/7~~-7-||
-2-----------2p0------2----------2p0-------2---------2p0------2---------.||--------||
-2-2-4-4-2-2-----2----2-4-4-2-2-------2----2-4-4-2-2-----2----2-4-4-2-2-.||-/7~~-7-||
-0-0-0-0-0-0-------3b-0-0-0-0-0---------3b-0-0-0-0-0-------3b-0-0-0-0-0--||--------||
-------------------------------------------------------------------------||--------||
repeat 2x

2
-----------------------||---------|
-----------------------||---------|
----------------------.||---------|
-2-0----------0h2~--2-.||---------|
-----2-----------------||-5-6-(7)-|
-------3b4-0-----------||-3-4-(5)-|
repeat 4x




Bridge/Solo

----------------------------------|
----------------------------------|
-2~-2-0---------------------------|
--------2-------------------------|
----------3b-0-----------7-6-5-4~-|
---------------0-3-4-5~--5-4-3-2~-|
                                                   
------------------------||
------------2~----------||
------------2~---------.||
----2-4p2------2-4p2---.||
----------4----------4--||
-2~---------------------||
repeat 8x

--------|--------------|--------------|--------------|---------------||--------------|
--------|---2-4--2-4---|---2-4--2-4---|---2-4--2-4---|---2-4--2-4----||--------------|
--------|---2-4--2-4---|---2-4--2-4---|---2-4--2-4---|---2-4--2-4---.||--------------|
-2------|-4-2-4--2-4-2-|-4-2-4--2-4-2-|-4-2-4--2-4-2-|-4-2-4--2-4-2-.||-2------------|
-2---x\-|-4----------2-|-4----------2-|-4----------2-|-4----------2--||-2--------5-6-|
-0---x\-|-2----------0-|-2----------0-|-2----------0-|-2----------0--||-0--------3-4-|
repeat 2x 

------------------|
------------------|
------------------|
-2----------------|
-2--------5-6-(7)-|
-0--------3-4-(5)-|





Comments


Popular Slashs Snakepit tabs & chords
Speed Parade Bass Tabs
The Truth Bass Tabs
Ain't Life Grand Tabs
Alien Tabs
Be The Ball 1 Tabs
Neither Can I Tabs
Shine Tabs
Something About Ur Love Bonus Track Tabs
Back And Forth Again Ukulele
Speed Parade Ukulele


Song lyrics



↑ Back to top | Tablatures and chords are parodies/interpretations of the original songs. You may use it for private study, scholarship, research or language learning purposes only
© 2014 AZChords.com Contact us | Privacy policy | DMCA | Add/correct tabs | Request tabs | Top 50 tabs