>
 >
Dime Store Rock

Dime Store Rock Guitar Tabs

Slashs Snakepit - Dime Store Rock chords, tabs, tablatures, lyrics

Guitar lessons | Add/correct | Request | Top 50 tabs Artists:  A B C D E F G H I J K L M N O P Q R S T U V W X Y Z 0-9

Dime Store Rock Guitar Tabs – Slashs Snakepit

CD, Sheet music, Poster

Do you like Dime Store Rock? Share with your friends now
TabsTabs v2
Slash Snakepit
It's Five O'Clock Somewhere


 Intro :                              x4                                       x4
|--------||--15~~~~feedback--------------||----------------------------------------||
|--------||------------------------------||--15---------------15------------17-----||
|--------||------------------------------||*-15---------------15------------17----*||
|--------||------------------------------||*-----17--15-16-17-----17--15-17----17-*||
|--------||------------------------------||----------------------------------------||
|--------||------------------------------||----------------------------------------||
|                                                                                   |
|--------||------------------------------||----------------------------------------||
|--------||------------------------------||---3-----------3------------5-----------||
|--------||*--3--0--------3--0----------*||*--3-----------3-h5p3-------5----------*||
|--------||*--3--0--------3--0----------*||*-----5--3-4-5--------5-3-5----5-------*||
|--------||------------------------------||----------------------------------------||
|--10\x--||---------1-2-3-------1-2-3-1--||----------------------------------------||


Verses & Chorus (x2):

          pm---|       pm---|  x4                                                      x2
||--------------------------------||--------------------||--------------------------------||
||--------------------------------||--------------------||--3-----------3------------5----||
||*-3----------------------------*||--8----5----3----5--||*-3-----------3-h5p3-------5---*||
||*-3--5--------3-h5p3-------5---*||--8----5----3----5--||*----5--3-4-5--------5-3-5---5-*||
||--------3-4-5--------5-4-5---5--||--6----3----1----3--||--------------------------------||
||--------------------------------||--------------------||--------------------------------||
|         pm---|       pm----|                                    pm---|       pm---|      |
||--------------------------------||--------------------||--------------------------------||
||--------------------------------||--------------------||--------------------------------||
||*-3----------------------------*||--8----5----3----5--||*-3----------------------------*||
||*-3--5--------3-h5p3-------5---*||--8----5----3----5--||*-3--5--------3-h5p3-------5---*||
||--------3-4-5--------5-4-5---5--||--6----3----1----3--||--------3-4-5--------5-4-5---5--||
||--------------------------------||--------------------||--------------------------------||

                                                     x2                        x3
|--------------------||---------------------------------||------------------------||
|--------------------||---3-----------3------------5----||----5---3---5b---5---3--||
|--8----5----3----5--||*--3-----------3-h5p3-------5---*||*---5---3---5b---5---3-*||
|--8----5----3----5--||*-----5--3-4-5--------5-3-5---5-*||*----------------------*||
|--6----3----1----3--||---------------------------------||------------------------||
|--------------------||---------------------------------||------------------------||
|                                                                                  |
|--------------------||---------------------------------||------------------------||
|--------------------||---3-----------3------------5----||----5---3---5b---5---3--||
|--8----5----3----5--||*--3-----------3-h5p3-------5---*||*---5---3---5b---5---3-*||
|--8----5----3----5--||*-----5--3-4-5--------5-3-5---5-*||*----------------------*||
|--6----3----1----3--||---------------------------------||------------------------||
|--------------------||---------------------------------||------------------------||


|--G-----------------A#------------------D#-----------------D------------------|

                                       x4
||----------------------------------------||
||--15---------------15------------17-----||
||*-15---------------15------------17----*||
||*-----17--15-16-17-----17--15-17----17-*||
||----------------------------------------||
||----------------------------------------||
|                                          |
||----------------------------------------||
||---3-----------3------------5-----------||
||*--3-----------3-h5p3-------5----------*||
||*-----5--3-4-5--------5-3-5----5-------*||
||----------------------------------------||


Solo (It's five o'clock : TIME TO ROCK !!!!!) :                    
                                                                  fast--|
|------------------------------0---1---0-1p0---0-----0--------------------|
|--2-3---2-3---2-3---2-3---2-3---3---3-------3---2/3---3\2----------------|
|------0-----0-----0-----0---------------------------------0-5-0-3-5p3-3--|
|-------------------------------------------------------------------------|
|-------------------------------------------------------------------------|
|-------------------------------------------------------------------------|

                                                         fast-------------|
|----------3---------3-----------------------------------3--------------------------|
|--------3---3-6b(8)---6-3-6-5h6p5p3-5---3-5---3-------3---6p3----------------------|
|--5b(7)-------------------------------6-----6---5b(7)---------5br(7)(5)---5-3------|
|------------------------------------------------------------------------5-----5-3--|
|-----------------------------------------------------------------------------------|
|-----------------------------------------------------------------------------------|

|------------------------------------------------------------------------|
|--------------------10b(12)---------------------------------------------|
|--------10----12-------------12~--10--12-10-------10--------------------|
|--10/12----12----12-------------------------12-11----12-10----10--------|
|-----------------------------------------------------------13----10/13--|
|------------------------------------------------------------------------|

                                                       x14
|---------13--------------------------------13-||-------13-||-/15~----15----18b~----|
|--13b(15)===(15)(13)-11----13----11--14/15----||-14h15----||------------15---------|
|------------------------12----12--------------||*--------*||-----------------------|
|----------------------------------------------||*--------*||-----------------------|
|----------------------------------------------||----------||-----------------------|
|----------------------------------------------||----------||-----------------------|

|--15-------------15------------------------------15------------15--------|
|-----15-18b(20)-----18-15-18p15----15---------15----15-18b(20)-----------|
|--------------------------------17----17b(19)---------------------17-15--|
|-------------------------------------------------------------------------|
|-------------------------------------------------------------------------|
|-------------------------------------------------------------------------|
                         
|-----------------------------|-------------------------------|----------||-15------------||-15---------|
|--17~---15---17b---17---15---|--18----18----18----18---------|--18b(20)-||----15-18b(20)-||----18b(20)-|
|--17~---15---17b---17---15---|--17b---17b---17b---17b---15---|----------||*-------------*||------------|
|-----------------------------|-------------------------------|----------||*-------------*||------------|
|-----------------------------|-------------------------------|----------||---------------||------------|
|-----------------------------|-------------------------------|----------||---------------||------------|

                                                              fast-|
|--15-------15------------------------------------------------------------------------------|
|-----18-16----18-16-18-15-16-15----15----14-15-14------------------------------------------|
|--------------------------------17----17----------17-15b(17)-15----17----15h17p15\14h15p14-|
|----------------------------------------------------------------17----17-------------------|
|-------------------------------------------------------------------------------------------|
|-------------------------------------------------------------------------------------------|

|-------------------------------------------------------------------------------------------|
|-------------------------------------------------------------------------------------------|
|----15----14-14~-----14--------------------------------------------------------12-14-15-14-|
|-17----17---------17----13-15-13-15-13=h15p13\12----13----12h13p12----12-13-15-------------|
|-------------------------------------------------15----15----------15----------------------|
|-------------------------------------------------------------------------------------------|

|--------------------------------------------------------------------------------------------|
|-----------------------------------------------------18-------------------------------------|
|-12h14p12h14----14----12h15p12----14-14~----17br(19)====(19)(17)-15----17-15h17p15\14----15-|
|-------------15----15----------15-----------------------------------17----------------17----|
|--------------------------------------------------------------------------------------------|
|--------------------------------------------------------------------------------------------|

                    fast-------------------------------------------------------------------|
|----------------------------------------15-------15-17-------15-17-15h17p15----15-18b(21)~--|
|-------------------------15-16-15h16-18----16h18-------16h18----------------18----xx--------|
|----14h15p14----14-15h17--------------------------------------------------------------------|
|-17----------17-----------------------------------------------------------------------------|
|--------------------------------------------------------------------------------------------|
|--------------------------------------------------------------------------------------------|

|--18-15------------15------------------------------15------------15---------------|
|--------15-18b(20)----18-15-18p15----15---------15----15-18b(20)----18-15-18b(20)-|
|----------------------------------17----17b(19)-----------------------------------|
|----------------------------------------------------------------------------------|
|----------------------------------------------------------------------------------|
|----------------------------------------------------------------------------------|

|-15---------------------------------------------------------|
|----18-17-16-15-16p15----15---------------------------------|
|----------------------17----17b(19)~~~~-----AAAHHHHH !!!!!--|
|------------------------------------------------------------|
|------------------------------------------------------------|
|------------------------------------------------------------|


Ain't it scary deep inside
Aren't you naked with no pride
Let me turn you on
Oh, I can feed you lies
Let me turn you on
It's no longer a game
And under your skin
I am ready to dive in
Parasites on television screens
Hide in the cracks and
Underneath the seams

Dime store rock
has warped your mind
Melting faces, deep set eyes
Let me turn you on
Hey baby what's your sign?
Let me turn you on

Goes along with the territory
She wants to fuck you tonight
Please, smelling like a wino
on her knees
Please, selling you her
gothic rocket dreams
She's gonna burn you out
To make it seem
Like nobody wants anything from you
Cause you're a has-been on TV

It's no longer a game
And under your skin
I am ready to dive in
In
Let me turn you on
Turn you, turn you on
Yeah

  Outro:
||---------3----------------------------------------------------------||
||--6b(8)------------3------------------------------------------------||
||*-----------5b(7)-----3--------------------0-----------------------*||
||*------------------------5--3h4-5-0-3b(5)------------0--------3/5~-*||
||----------------------------------------------3b(5)-----1-----------||
||-----------------------------------------------------------3--------||

||------------------------------||----------------------------------|
||--5-4-3-------5-4-3-------3~--||--5-4-3-------5-4-3-------3h5-3~--|
||*-------4-3-2-------4-3-2-3~-*||--------4-3-2-------4-3-2-3h5-3~--|
||*----------------------------*||----------------------------------|
||------------------------------||----------------------------------|
||------------------------------||----------------------------------|


|--------------/6-5-3---3---------3-------------3--------------------------------|
|--5-4-3--------------6---3-6b(8)---3-6b(8)~------3-6---3~-----------------------|
|--------4-3-2----------------------------------------5-3~-----------------------|
|-------------------------------------------------------------\5--5-3-0----------|
|-----------------------------------------------------------------------3-1------|
|---------------------------------------------------------------------------3-1--|


|-------------------------------------------------------------------------------------|
|--3~---------3-5-5br(7)(5)p3-5---3~--------------------------------------------------|
|--3~---------3-5-5br(7)(5)p3-5---3~----------------------------------AH--------------|
|--------5--5-------------------5-----5-3---------------------------3-3---------------|
|-----------------------------------------\3--1-------1--1--3-1-3/5-----X-1-3---3b(5)-|
|-----------------------------------------------3~--3-------------------------3-------|


|-------------------------------------------------3---6-5h6p5p3-5---3---------6-8b(10)--6-8-|
|---------------------------------AH------3---6-----3-------------6---3-6b(8)---------------|
|---------------------------------3---5-----5---5-------------------------------------------|
|-----------------------3---3-5-----5---5---------------------------------------------------|
|--1-3---1b(3)--3---3/5---5-----5-----------------------------------------------------------|
|------3----------3-------------------------------------------------------------------------|


|---6--------------------------------------------------------------------------------------------|
|-8---6-8------------------------------------------/\/\/\/\/\/\/\-AH------------3----------------|
|---------7-6br(7)(6)-5-6-5h6p5\3-5-3br(5)(3)p0-3b/---------------3brb(5)(3)(5)---3r(5)(3)-2-3-2-|
|------------------------------------------------------------------------------------------------|
|---------------------------------------------------------------------------------fade out-------|
|------------------------------------------------------------------------------------------------|





Comments


Popular Slashs Snakepit tabs & chords
Back And Forth Again Tabs
Beggars And Hangers On 1 Tabs
Beggars And Hangers On Intro 1 Tabs
Beggars And Hangers On Intro 4 Tabs
Dime Store Rock 1 Tabs
Jizz Tabs
Landslide Tabs
Serial Killer 1 Tabs
Take It Away Tabs
Taman Astakona Ukulele


Song lyrics



↑ Back to top | Tablatures and chords are parodies/interpretations of the original songs. You may use it for private study, scholarship, research or language learning purposes only
© 2014 AZChords.com Contact us | Privacy policy | DMCA | Add/correct tabs | Request tabs | Top 50 tabs