» » »

Beggars And Hangers On Tabs (ver.6)

Artists:  A B C D E F G H I J K L M N O P Q R S T U V W X Y Z # 

Beggars And Hangers On Tabs (ver.6)

Slashs Snakepit
Rating:
3/5 (4 votes)

Hard to play? Try these video lessons and learn fast.
                Beggars and hangers on
Slash's Snakepit
It's five o'clock somewhere


 2x
|-----------------------------------------------------------------------|
|-----------------------------------------------------------------------|
|------------------------------4-(p/r)---------4-(p/r)--------4-(p/r)---|
|--14\-------2-(p/r)--0------2-(p/r)--0---2-(p/r)--0-----2-(p/r)--0-----|
|--12\--------------------0---------------0--------------0--------------|
|-----------------------------------------------------------------------|

|-----------------------------------------------------------|
|-----------------------------------------------------------|
|--------------------4-(p/r)---------4-(p/r)---------5-\-7--|
|---2-(p/r)--0-----2-(p/r)--0-----2-(p/r)--0---------3-\-5--|
|----------------0----------------0--------------0----------|
|-----------------------------------------------------------|

|-----------------------------------------------------------------|
|-----------------------------------------------------------------|
|-------------------4-(p/r)---------4-(p/r)----------4-(p/r)------|
|--2-(p/r)--0-----2-(p/r)--0-----2-(p/r)--0-----2-(p/r)--0--------|
|---------------0----------------0--------------0-----------------|
|-----------------------------------------------------------------|

|-------------------------------------------------------------------------|
|-------------------------------------------------------------------------|
|-------------------------------------------------------------------5--2--|
|-3--2-(p/r)--0-------------------5--2-(p/r)--0------------------3--0-----|
|-----------------0--2-(p/r)--0-------------------0--2-(p/r)--0-----------|
|-------------------------------------------------------------------------|

|----------------------------------------------------|
|----------------------------------------------------|
|----------------------------------------------------|
|--2-(p/r)--0---------------0-------------0-----5----|
|---------------0--2-(p/r)-----0------0------0--3----|
|-----------------------------------3----------------|

|---------------------------------------------------------|
|---------------------------------------------------------|
|-------------------------------------------------5-/-7---|
|--2-(p/r)--0---------------0-------------0-------3-/-5---|
|---------------0--2-(p/r)-----0-------0------0-----------|
|-----------------------------------3---------------------|

|----------------------------------------------------|
|----------------------------------------------------|
|----------------------------------------------------|
|--2-(p/r)--0---------------0-------------0-----5----|
|---------------0--2-(p/r)-----0------0------0--3----|
|----------------------------------3-----------------|

|--------------------------------------------------------------------------------------|
|--------------------------------------------------------------------------------------|
|--------------------------------------------------------------------------------------|
|-3--2-(p/r)--0-------5--2-(p/r)--0---2-(p/r)--0-------------0-------------0--------5--|
|-----------------0-------------------0-------------0--2-(p/r)-----0-------0-----0--3--|
|--------------------------------------------------------------------------------3-----|

|--------------------------------------------------------|
|--------------------------------------------------------|
|-------------------------------------------------5-/-7--|
|--2-(p/r)--0---------------0-------------0-------3-/-5--|
|---------------0--2-(p/r)-----0------0------0-----------|
|-----------------------------------3--------------------|

|-----------------------------------------------------|
|-----------------------------------------------------|
|-----------------------------------------------------|
|--2-(p/r)--0---------------0-------------0-------5---|
|---------------0--2-(p/r)-----0-------0------0---3---|
|-----------------------------------3-----------------|

|------------------------------------------------------|
|------------------------------------------------------|
|------------------------------------------------------|
|--3--2-(p/r)--0-------5--2-(p/r)--0-----0-----5-/-2---|
|------------------0---------------------0-----3-/-0---|
|------------------------------------------------------|

D Dsus2 D Dsus4 D
Well I know, 

Am Amsus2 Am Amsus4 Am 
you couldn't love me 

G D Dsus2 D Dsus4 D
Cause you're promise to a wealthy man

Dsus2 D Dsus4 D
Take a look, 

Am Amsus2 Am Amsus4 Am
what are you seein'?

G D 
Is that a noose or a wedding band

D Dsus2 D Dsus4 D
Should I go 

Am Amsus2 Am Amsus4 Am 
to see a healer

G D
Nervous twitchin' in my hands

Cadd9 G D

Cadd9 G D
Nervous twitchin' in my head

D A
God help me rid this feelin'

G Cadd9 
Cause I'm fallin' all to pieces

G
And I can't get out of bed

C5 / D5
Beggars and Hangers-on

C5 / D5 F5 G5
Try to take you from me 

C5 / D5
Someone with a bible in his pocket 

F5 G5
clauding everything you see

C5 / D5
Beggars and Hangers-on

C5 / D5 F5 G5
they chip it away

C5 / D5
bury your soul in the river

F5 G5
cause the end is here to stay

Cadd9 G D

Cadd9 G D

D A
God help me rid this feelin'

G Cadd9 
Cause I'm fallin' all to pieces

G
And I can't get out of bed

Cadd9 G D

D Dsus2 D Dsus4 D
I was wrong

Am Amsus2 Am Amsus4 Am 
I don't need you

G
It seems reckless

D 
and unfair

D Dsus2 D Dsus4 D
Better days

Am Amsus2 Am Amsus4 Am 
Are far behind

G
Guess that's another cross

D
I'll have to bear

Cadd9 G D
 
 Guitar solo: (over: D Dsus2 D Dsus4 D Am Amsus2 Am Amsus4 Am G D Dsus2 D Dsus4 D)
|-----------------------------------------------------------|
|-7-------------------------------------8--7--5------5------|
|-------------------------------------------------7---------|
|-----------------------------------------------------------|
|-----------------------------------------------------------|
|-----------------------------------------------------------|

|----------------------------------------|
|------------------8--7--5----5--7--8----|
|---------------------------7------------|
|----------------------------------------|
|----------------------------------------|
|----------------------------------------|

|-----------------------------------------------------------|
|-8--7--5-----5--7------7--5----5-(p/r)---------7-----------|
|-----------7--------------------------------7--5-----------|
|-----------------------------------------------------------|
|-----------------------------------------------------------|
|-----------------------------------------------------------|

|------------------------------------------8-(p/r)--8-(p)-8----|
|---------------------8--7--5---5------------------------------|
|----------------------------------7---------------------------|
|--------------------------------------------------------------|
|--------------------------------------------------------------|
|--------------------------------------------------------------|

|--8-(r)--7----------------------------|
|------------8----5-(p/r)--------7-\---|
|---------------------------7--5-------|
|--------------------------------------|
|--------------------------------------|
|--------------------------------------|

*****************************************************
|    Appetite for tablatures home page              |
*****************************************************
            
Hard to play? Try these video lessons and learn fast. | Correct




comments powered by Disqus
↑ Back to top | Tablatures and chords are parodies/interpretations of the original songs. You may use it for private study, scholarship, research or language learning purposes only