» » »

Slashs Snakepit, Back To The Moment Tabs (ver.2)

Artists:  A B C D E F G H I J K L M N O P Q R S T U V W X Y Z # 

Back To The Moment Tabs (ver.2)

Slashs Snakepit Tabs
Rating:
5/5 (1 vote)
Back To The Moment lessons Tabs too difficult? Try these video lessons and learn fast
                "Back To The Moment"
(As recorded by Slash's Snakepit on "Ain't Life Grand")
(Thanx for the first part of the solo & your support)
Tune your guitar flat!!!

C                         C7                   F
You say you don't wanna go but you've got to understand
               Bb                C                 C7
That you're so far away from me and I'm all alone
                 F
Even when you're standing next to me
           Bb
Deep inside, I feel you want to go free

Am  H  C   F
I wanted you eternally
Am  H  C   F                  G
I see the truth, now that you've lied to me 


                        C                   Bb
Can't you see that the pain breaks me in two
                 F/A
It takes me from you
                 G#                 Bb
I feel it stop my beating heart, with every little thing you do
C               Bb                             F/A
It tears me apart, please make it stop and be mine again
                  G#                 Bb
So we can take it right back to the moment
          C             Bb       F/A      G#     Bb
Where we start again    (lick 1)

Lick 1 (w/slide)
|--------------------------------------------------------------------------------------------|
|-1-/sl-8~----------------8~-----------------8-\sl-6--6-\sl-5-/sl-6--6--8-\sl----/sl-5-(\sl)-|
|----------5-/sl-7-\sl-5------5-/sl-7-\sl-5------------------------------------5-------------|
|--------------------------------------------------------------------------------------------|
|--------------------------------------------------------------------------------------------|
|--------------------------------------------------------------------------------------------|

            C                     C7
And baby, you say you already know
                    F
But you won't ever understand
              Bb                              C
What it's like to feel you slippin' away from me
                C7
I'm down on my knees
              F
Even though I tried to carry on
           Bb
Deep inside, I feel like I'm the only one


Am  H  C   F
I wanted you eternally
Am  H  C   F                  G
I see the truth, now that you've lied to me 


                        C                   Bb
Can't you see that the pain breaks me in two
                 F/A
It takes me from you
                 G#                 Bb
I feel it stop my beating heart, with every little thing you do
C               Bb                             F/A
It tears me apart, please make it stop and be mine again
                  G#                 Bb
So we can take it right back to the moment, where we start...


G#                 Bb
I feel like you're taking away 
   C (Lick 2)
My everything, my everything 
G#                            Bb
'Cause everything you say and do 
                         C
It's like your playing a part 
         G#
When the curtain finally closes
         Bb
I wonder if you're going to take a bow 
                    C
Before you break my heart, before you break my heart 


Lick 2 (goes until solo starts)

        _1_                               _1_~~~_hold_
|------/----8----------_1_---------------/-------------------------------------|
|----11-------11-8----/---\------------11--------------------------------------|
|-------------------10------p8-------------------------------------------------|
|-------------------------------10---------------------------------------------|
|------------------------------------------------------------------------------|
|------------------------------------------------------------------------------|

            _1_                                       _1_             _1_
|----------/-----------------------------------------/---\-----------/---\-----|
|--------16-----16-15-16-15h16p15p13--15--16--13~--15-----15-p-13--15-----15---|
|------------------------------------------------------------------------------|
|--17-17-----------------------------------------------------------------------|
|------------------------------------------------------------------------------|
|------------------------------------------------------------------------------|

          _1_                           _1/4_
|--------/---\-------------------------/-----\---------------------------------|
|--15--15-------13~-hold---------13--13---------12~-hold--------\sl------------|
|------------------------------------------------------------------------------|
|------------------------------------------------------------------------------|
|------------------------------------------------------------------------------|
|------------------------------------------------------------------------------|


Solo
C; C; F; Bb
C; C; F; Bb
Am; H; C; F
Am; H; C; F
Am; H; C; F
G
     _1_                               _1_            _1/2_~      _1_
|---|---\-------_1_-----------_1_-----/--------------/-----------|---\---------|
|--18----------/---\--20~----/---\--18------18-18--17--------18-18-------------|
|------------17------------17------------------------------------------17------|
|------------------------------------------------------------------------------|
|------------------------------------------------------------------------------|
|------------------------------------------------------------------------------|

                                  _1_                                     _1_
|-----_1_------------_1_---18----/---\--18-17-15----16-15h16p15p13--15---/-----|
|----/----20--------/---\------17----------------18--------------------15------|
|--19--------17~--17-----------------------------------------------------------|
|------------------------------------------------------------------------------|
|------------------------------------------------------------------------------|
|------------------------------------------------------------------------------|


2nd part of solo (w/wah)
                                                _1_
     _1~____                                   /
|---/----15-\--------------------------------15------12-13-15--13-12-13--------|
|-15----------13----15-13-----------13~-\sl------------------------------------|
|----------------14-------14-p12-14--------------------------------------------|
|------------------------------------------------------------------------------|
|------------------------------------------------------------------------------|
|------------------------------------------------------------------------------|

                    _1~_        _1_               _1_
|-12h13p12----12---/------12---/------------15---/---\-------------------------|
|----------15----15----------15-----p13--------15------p13---------------------|
|---------------------------------------14-----------------14~-14~-------------|
|------------------------------------------------------------------------------|
|------------------------------------------------------------------------------|
|------------------------------------------------------------------------------|

                          _1_
|-----_1_----------------/---\---------------------------12-13-----------------|
|-8--/---\-------------13------12-h13-13---10--13-12-13------------------------|
|---7------p5---7---5----------------------------------------------------------|
|-------------7---7------------------------------------------------------------|
|------------------------------------------------------------------------------|
|------------------------------------------------------------------------------|


|-12h13p12p10h12----10---------------------------------------------------------|
|---------------13-----13-12\sl10--12\sl10--12h13p12p10h12--8-10h11p10p8-------|
|------------------------------------------------------------------------sl/12-|
|------------------------------------------------------------------------------|
|------------------------------------------------------------------------------|
|------------------------------------------------------------------------------|

                     _1~~~_
|-------------------/----------------------------------------------------------|
|-----------------18---------\sl-----------------------------------------------|
|-------16-17p16---------------------------------------------------------------|
|-sl/17------------------------------------------------------------------------|
|------------------------------------------------------------------------------|
|------------------------------------------------------------------------------|


                        C                   Bb
Can't you see that the pain breaks me in two
                 F/A
It takes me from you
                 G#                 Bb
I feel it stop my beating heart, with every little thing you do
C               Bb                             F/A
It tears me apart, please make it stop and be mine again
                  G#                 Bb
So we can take it right back to the moment


                        C                   Bb
Can't you see that the pain breaks me in two
                 F/A
It takes me from you
                 G#                 Bb
I feel it stop my beating heart, with every little thing you do
C               Bb                             F/A
It tears me apart, please make it stop and be mine again
                  G#                 Bb
So we can take it right back to the moment

repeat to fade...
            
Submit corrections

comments powered by Disqus
↑ Back to top | Slashs Snakepit Tabs for Back To The Moment. Lyrics for acoustic guitar and electric guitar. Tablatures and chords are parodies/interpretations of the original songs. You may use it for private study, scholarship, research or language learning purposes only