>
 >
Back And Forth Again 4

Back And Forth Again 4 Guitar Tabs

Slashs Snakepit - Back And Forth Again 4 chords, tabs, tablatures, lyrics

Guitar lessons | Add/correct | Request | Top 50 tabs Artists:  A B C D E F G H I J K L M N O P Q R S T U V W X Y Z 0-9

Back And Forth Again 4 Guitar Tabs – Slashs Snakepit

CD, Sheet music, Poster

Do you like Back And Forth Again 4? Share with your friends now
ChordsTabsTabs v2Tabs v3Tabs v4Ukulele
-------------------------------------------------------------------------------
                             BACK AND FORTH AGAIN – Slash’s Snakepit
-------------------------------------------------------------------------------

Tuning: Eb Ab Db Gb Bb eb


e|---------------------------------------------------------------------------|
B|------------------------------------------------------15~-15b17b15b17~r----|
G|-12b14r12-------------11~-12-11-12~-12/14-12-14p12p11----------------------|
D|----------12b14r12----12~--------------------------------------------------|
A|-------------------12------------------------------------------------------|
E|---------------------------------------------------------------------------|

e|---------------------------------------------------------------------------|
B|-12/13h15h17b19-------15h17h19h20-19b20~-15-17h18h19-17b19~\\\\\\----------|
G|-----------------////------------------------------------------------------|
D|---------------------------------------------------------------------------|
A|---------------------------------------------------------------------------|
E|---------------------------------------------------------------------------|

e|-------12------------------------------------------------------------------|
B|-15b17----15-12------------------------------------------------------------|
G|----------------pb15r14-12----12h14p12~------------------------------------|
D|---------------------------14----------------------------------------------|
A|---------------------------------------------------------------------------|
E|---------------------------------------------------------------------------|

e|-------------------------------------------14--15-14-15-12-15-14-15p14p12--|
B|-15b17-17r15-12----15b17-17r15-12-15p12------------------------------------|
G|----------------14----------------------14---------------------------------|
D|---------------------------------------------------------------------------|
A|---------------------------------------------------------------------------|
E|---------------------------------------------------------------------------|

e|----15-12-14-15-12-15p12----12---------------------------------------------|
B|-15----------------------15----15b17-15-12----------12h15p12---------------|
G|-------------------------------------------14-12h14----------15pb14-12-----|
D|-----------------------------------------------------------------------14--|
A|---------------------------------------------------------------------------|
E|---------------------------------------------------------------------------|

e|---------------------------------------------------------------------------|
B|---------------------------------------------------------------------------|
G|----14-------12h14-12~--14-12-14-12-11-12-11-12p11----11-------------------|
D|-12----12-14---------------------------------------14----14-12-------------|
A|---------------------------------------------------------------14-13-14pb13|
E|---------------------------------------------------------------------------|

e|---------------------------------------------------------------------------|
B|---------------------------------------------------------------------------|
G|---------------------------------------------------------------------------|
D|---------------------------------------------------------------------------|
A|-12-10-------10-------10-12~-10----10-12\\\\\\\\---------------------------|
E|-------12-10----10-12-----------12-----------------------------------------|

e|----------2-3-2-3p2p0---3p0-2p0---0----------2-3-5-2-3-5/8-5-7---5-7/10----|
B|------0-5-------------3---------3---3/5—-3-5-------------------8-----------|
G|-2sb4----------------------------------------------------------------------|
D|---------------------------------------------------------------------------|
A|---------------------------------------------------------------------------|
E|---------------------------------------------------------------------------|

e|-7-8----7-8/12-8-10-12-10-8--8-10----7-8-7----7----------------------------|
B|-----10---------------------------10-------10---10b12r10-8---10~----8-10---|
G|-----------------------------------------------------------9------9--------|
D|---------------------------------------------------------------------------|
A|---------------------------------------------------------------------------|
E|---------------------------------------------------------------------------|

e|---------------------------------------------------------------------------|
B|-pb11.5r10-8---7s5-5-5~s3---5-3-------------------------7-8p7---7----------|
G|-------------9------------4-----4-2b3-0---2---------7-9-------9------------|
D|----------------------------------------2---2s5-7s9------------------------|
A|---------------------------------------------------------------------------|
E|---------------------------------------------------------------------------|

e|-----10------------------[-----10-------------]----------|
B|-s12----12s10-8---10---8-[-s12----12s10-8---8-]--------8-|   Vocals return…
G|----------------9----9---[----------------9---]—X2---9---|
D|-------------------------[--------------------]----------|
A|-------------------------[--------------------]----------|
E|-------------------------[--------------------]----------|


| /  slide up
| \  slide down
| h  hammer-on
| p  pull-off
| ~  vibrato
| +  harmonic
| x  Mute note


This is Slash's wonderful solo which features on the album It's 5 O'clock
Somewhere. I'm sure this tab is not 100% perfect. However I believe it is
good enough to give most people a very good idea of how Slash played this
solo.

For some parts I had to digitally slow down the tempo just so I could hear
every note that Slash was playing! Partly because of this I might have 'over
some 'notes' that arise because of a slide or something. However I dont
think I have done this too many times.

I have tried to make this tab is readable as possible. However, it is quite
hard because some of Slash's timing is very hard to interpret.

I hope you enjoy playing this!

Slaveaway



===============================================================================





Comments


Popular Slashs Snakepit tabs & chords
Been There Lately Bass Tabs
Mean Bone Bass Tabs
Speed Parade 2 Bass Tabs
Be The Ball 1 Tabs
Beggars And Hangers On (Intro) Tabs
Give In To Me Tabs
Mean Bone Tabs
Serial Killer Tabs
Serial Killer 1 Tabs
Shine 1 Tabs


Song lyrics



↑ Back to top | Tablatures and chords are parodies/interpretations of the original songs. You may use it for private study, scholarship, research or language learning purposes only
© 2014 AZChords.com Contact us | Privacy policy | DMCA | Add/correct tabs | Request tabs | Top 50 tabs