» » »

Slashs Snakepit, Back And Forth Again Tabs (ver.1)

Artists:  A B C D E F G H I J K L M N O P Q R S T U V W X Y Z # 

Back And Forth Again Tabs (ver.1)

Slashs Snakepit Tabs
Rating:
3/5 (3 votes)
Back And Forth Again lessons Tabs too difficult? Try these video lessons and learn fast
                For this song, I would recommend listening to the track first to pick up the
taps he fits in between the finger picking of major chords to create a more
stable rhythm. Be sure to use an acoustic or steel string to get the exact
sound which Slash manages to achieve. Repeatedly loop this lick till it gets
to a change in the lyrics.

*Use finger picking on a steel string acoustic.*

Intro.

     F
----1--------------------------------------------------------------|
----1-----1--------------1-----------------------------------------|
----0h2-------2----------------0-----------0-----------------------|
----3--------3-----0h2-----2------------0--------------------------|
----3--------------3--------------------2------3--2—0h2------------|
----1-------------------------------3------------------------------|
     T                          *organ is played for the intro.

----1---------------3---------------------3--2--2------------------|
----1----1------------3--------1---------3--3--3-------------------|
----0h2------2--0------0-----0------0--0--2--2---------------------|
----3------3-----0----------2----2---0------0-----2/4--------------|
----3------------2----------3-----3--2-----------------------------|
----1------------3--------------------3----------------------------|
     T

Guitar II
--3--3--3-------------8-----------3---------10---------------------|
--3--3--3-------------8-----------3---------10--------7------------|
--0--0--0---0---5/9----------4-------9/11------------7-------------|
--0--0--0---2---------------5--------------------------7-----------|
--2--2--2---3-------------------------------------7h9--------------|
--3--3--3----------------------------------------------------------|
          Now we're back and forth again…
Solo:

------------------------------------------------------|
----------------------------------8-7-8-10~~-8h10p8p7-|
--12­¯---------------11~~~----------------------------|
---------12­p10-----12~~~-----------------------------|
------------------12----------------------------------|
------------------------------------------------------|

--------10~~--10­-10­--------10h12-12­---------|
-------------------10h12-----------------------|
-----------------------------------------------|
-----------------------------------------------|
-----------------------------------------------|
-----------------------------------------------|

---------------10h12h13p12p10-13­----|
--10h12h13---------------------------|
-------------------------------------|
-------------------------------------|
-------------------------------------|
-------------------------------------|

------10h12­-----------------------------------------------------|
---10h12-----------15­-12h15p12----------------------------------|
--------------------------------------------14­p12----12h14p12---|
------------------------------------------------------14---------|
-----------------------------------------------------------------|
-----------------------------------------------------------------|


----------------------------------------------14--15-14-15p14p12--|
--15­15-12-15--15­15-12h15p12-------------------------------15----|
------------------------------------------14----------------------|
------------------------------------------------------------------|
------------------------------------------------------------------|
------------------------------------------------------------------|

---12h14p12-----12---------|
----------15------15­------|
---------------------------|
---------------------------|
---------------------------|
---------------------------|

------------------------------------------------------------------|
--12h15p12--------------------------------------------------------|
---------------14­--12h14p12-----14-12-14-12-11-----11h12p11------|
-----------------------------------------------------------14-----|
------------------------------------------------------------------|
------------------------------------------------------------------|

-------------------------------------------------------------|
-------------------------------------------------------------|
-------------------------------------------------------------|
---------14-13-14p13p12-------------------------------12-14--|
-------------------------------14-13-12/10----12/14----------|
-------------------------------------------------------------|
            

comments powered by Disqus
↑ Back to top | Slashs Snakepit Tabs for Back And Forth Again. Lyrics for acoustic guitar and electric guitar. Tablatures and chords are parodies/interpretations of the original songs. You may use it for private study, scholarship, research or language learning purposes only