» » »

Run Run Away Tabs (ver.1)

Artists:  A B C D E F G H I J K L M N O P Q R S T U V W X Y Z # 

Run Run Away Tabs (ver.1)

Slade
Rating:
5/5 (4 votes)

Hard to play? Try these video lessons and learn fast.
                


------------ by Slade: 'Feel the Noise-Slade Greatest Hits' 1997

Intro
e|-----------------------------------------------------------|
b|-----------------------------------------------------------|
g|------9--9--9---7---9--9--9-------9--9--9--7---9--9--9-----|
D|--7---9--9--9---7---9--9--9---7---9--9--9--7---9--9--9--7--|
A|--7---7--7--7---5---7--7--7---7---7--7--7--5---7--7--7--7--|
E|--5---------------------------5-------------------------5--|

e|--------------------------------------------------------------------|
b|--------------------------------------------------------------------|
g|--9--9--9---7---9--9--9-------9--9--9--7----------------------------|
D|--9--9--9---7---9--9--9---7---9--9--9--7----------------------------|
A|--7--7--7---5---7--7--7---7---7--7--7--5----------------------------|
E|--------------------------5-----------------------------------------|

Patt.1
e|----------------------------------------------------------------------------|
b|----------------------------------------------------------------------------|
g|----------9--9--9---7---9--9--9-------9--9--9--7---9------------------------|
D|--7-------9--9--9---7---9--9--9---7---9--9--9--7---9------------------------|
A|--7-------7--7--7---5---7--7--7---7---7--7--7--5---7------------------------|
E|--5-------------------------------5-------------------3---5---3-------------|

Lick 1a (A) over Patt.1
e|------------------------------------------|---------------------------------|
b|------------------------10--10---7--------|---------------------------------|
g|-----------6----9--9-----------------9--9-|----------6---9--9----6----------|
D|--7---9-----------------------------------|--7---9-------------------9---7--|
A|------------------------------------------|---------------------------------|
E|------------------------------------------|---------------------------------|
Lick 1b
e|---------------------------------------------|------------------------------|
b|-10--------7------------------------7--------|--10-----7--------------------|
g|------9---------9--9-----6---9--9------9---9-|------9-----9--9----6---------|
D|---------------------------------------------|------------------------9---7-|
A|---------------------------------------------|------------------------------|
E|---------------------------------------------|------------------------------|

Lick 2 (D)
e|------------------------10--10--10---12--10--10--10--12---14--12--10--12--10|
b|-----------7---10--10-------------------------------------------------------|
g|--7---9---------------------------------------------------------------------|
D|----------------------------------------------------------------------------|
A|----------------------------------------------------------------------------|
E|----------------------------------------------------------------------------|

e|----10---12---10-|---10------7------------------------7---------10-----7----|
b|12---------------|-------10------10--10----7--10--10-----10--10----10----10-|
g|-----------------|----------------------------------------------------------|
D|-----------------|----------------------------------------------------------|
A|-----------------|----------------------------------------------------------|
E|-----------------|----------------------------------------------------------|

e|------------------|
b|-10----7----------|
g|-----------9---7--|
D|------------------|
A|------------------|
E|------------------|

Patt.1
I love black and white
we need black and white
and you like black and white
Run run away

Patt.1
See a chameleon
laying there in the sun
All things to everyone
Run run away

Lick 1a & 1b

Patt.1
If you're in the swing
all here in everything
If you're in the swing
Run run away

Patt.1
See a chameleon
laying there in the sun
All things to everyone
Run run away

Lick 2

Patt.1
If you've got a crush
don't be around the bush
When I've got a crush
Run run away

Patt.1
See a chameleon
laying there in the sun
All things to everyone
Run run away

Lick 2 (end with D D D )

Baby...

e|-----------------------------------------------------|
b|-----------------------------------------------------|
g|-----------------------------------------------------|
D|-----------------------------------------------------|
A|------------------------4---4--5--4--4---4-----------|
E|--0--5-----5--7--5--7-----------------------7--7--9--|  2x

e|-----------------------------------------------------|
b|-----------------------------------------------------|
g|-----------------------------------------------------|
D|------------------------4---4--5--4--4---4-----------|
A|-----5-----5--7--5--7-----------------------7--7--9--|
E|--5--------------------------------------------------|  2x

Patt.1

Patt.1  with Lick 1a
All night can't you win
now go on and win
All night can't you win
Run run away

Patt.1  with Lick 1b
See a chameleon
laying there in the sun
All things to everyone
Run run away

Run run away
Run run away
Run run away

Patt.1
            
Hard to play? Try these video lessons and learn fast. | Correct




comments powered by Disqus
↑ Back to top | Tablatures and chords are parodies/interpretations of the original songs. You may use it for private study, scholarship, research or language learning purposes only