» » »

Over The Love Tabs (ver.1)

Artists:  A B C D E F G H I J K L M N O P Q R S T U V W X Y Z # 

Over The Love Tabs (ver.1)

Skunk Anansie
Rating:
5/5 (1 vote)

Hard to play? Try these video lessons and learn fast.
                Song Title: Over The Love


Standard Tuning

Notes: My transcription of the song. I don't know if they're playing this song 
with 2 guitars(i think so in album version)...if they're not G1 is the bass line.
Have fun! 


Intro
       G1                                   G2

|-----------------|    |-------------------------------------------------|
|-----------------|    |--14--12--10--14--12--10--14--12--10--9--10--12--|   
|--7--------------|    |---X---X---X---X---X---X---X---X---X--X---X---X--|  
|--7---4---7---6--|    |--11---9---7--11---9---7--11---9---7--6---7---9--|
|--5---4---7---7--|    |-------------------------------------------------|
|------2---5---4--|    |-------------------------------------------------|


Verse


|--------------------|
|--------------------|
|--7-------5---------|
|--7-----7-------6-7-|    X2
|--5---7-------7-----|  
|----5-------4-------|   



|-----------|
|-----------|
|--7-----1--|
|--7--4--2--|    X1
|--5--4--2--|
|-----2--0--|


Chorus

         G1
|-----------------|            |-----------|
|-----------------|            |-----------|
|--7--------------|            |--7--4--1--|
|--7---4---7---6--|     X3     |--7--4--2--|   X1
|--5---4---5---7--|            |--5--4--2--|
|------2---5---4--|            |-----2--0--|

         G2

|-------------------------|             
|-------------------------|             
|--11--13--14-14--13--11--|    
|---X---X---X--X---X---X--|   X2 
|---9--11--12-12--11---9--|     
|-------------------------|                                     



|-------------------------------------------------|
|--14--12--10--14--12--10--14--12--10--9--10--12--|   
|---X---X---X---X---X---X---X---X---X--X---X---X--|       
|--11---9---7--11---9---7--11---9---7--6---7---9--|     X1
|-------------------------------------------------|
|-------------------------------------------------|      


Bridge

            G1

|-----|             |-----| 
|-----|             |-----|
|--7--|             |--1--|
|--7--|   X2        |--2--|    X1
|--5--|             |--2--|
|-----|             |--0--|

    
            G2


|------------|           |------|
|--15-14-10--|           |--17--|
|---X--X--X--|           |---X--|    
|--12-11--7--|    X2     |--14--|    X1
|------------|           |------|
|------------|           |------|
            
Hard to play? Try these video lessons and learn fast. | Correct




comments powered by Disqus
↑ Back to top | Tablatures and chords are parodies/interpretations of the original songs. You may use it for private study, scholarship, research or language learning purposes only