» » »

What You Say Tabs (ver.1)

Artists:  A B C D E F G H I J K L M N O P Q R S T U V W X Y Z # 

What You Say Tabs (ver.1)

Skrape
Rating:
0/5 (0 votes)

Hard to play? Try these video lessons and learn fast.
                Tuning: Drop C  (C,G,C,F,A,D)

<> = harmonic
b  = bend
\  = slide
h  = hammer on
x  = mute string

intro
-----------------|-------------------|----------|-----------------------------
-----------------|-------------------|----------|-----------------------------
-----------------|----------------<5>|-------7--|-----------------------------
-----------------|--0-0-0--<7>-<5>---|-0-0-0-7--|--9b-------------------------
-----------------|--0-0-0------------|-0-0-0-5--|-----------------------------
-00000000000000--|--0-0-0------------|-0-0-0----|-----------------------------
    


verse:
------------------------|-----------------------------------------------------
------------------------|-----------------------------------------------------
------------------------|---------------------4-------------------------------
-2-1-0--0-2-1-0--0-1-2--|-2-1-0--0-2-1-0--0-1-4-------------------------------
-2-1-0--0-2-1-0--0-1-2--|-2-1-0--0-2-1-0--0-1-2-------------------------------
-2-1-0--0-2-1-0--0-1-2--|-2-1-0--0-2-1-0--0-1---------------------------------
                                                                              


pre-chorus:
------------------------|-----------------------------------------------------
------------------------|-----------------------------------------------------
-5---------5-------5----|-----------------------------------------------------
-5-0-5-3-0-5-0-5-0-5----|--12\-1----------------------------------------------
-3-0-5-3-0-3-0-5-0-3----|--12\-1----------------------------------------------
---0-5-3-0---0-5-0------|--12\-1----------------------------------------------
                                                                              


chorus:
----------3-------------------------------3------------------------------------
----------2--8----------------------------2---8------------------------------------
-7-5-0h3--0--6-----0-0-0-0-0-0-0-7-5-0h3--0---6------------------------------------
-7-5-0h3--0--6-----0-0-0-0-0-0-0-7-5-0h3--0---6------------------------------------
-7-5-0h3--0--6-----0-0-0-0-0-0-0-7-5-0h3--0---6------------------------------------
                                                                              

interlude 1:

-5-5-5--5--5-5-5--5--5-5------------------------------------------------------
-x-x-x--x--x-x-x--x--x-x------------------------------------------------------
-7-7-7--7--7-7-7--7--7-7------------------------------------------------------
                                                                              

interlude 2.....guitar 1:
---------------------------------|--------------------------------------------
---------------------------------|--------------------------------------------
---------------------------------|--------------------------------------------
---------------------------------|-x-x--x-x--x-x------------------------------
---------------------------------|-x-x--x-x--x-x------------------------------
-0-1-2-0-1-2-0-1-2-0-1-2-0-1-2---|-x-x--x-x--x-x------------------------------
                                                                              

guitar 2:
-10-10-10-10-10-10--15b-------------------------------------------------------
            
Hard to play? Try these video lessons and learn fast. | Correct




comments powered by Disqus
↑ Back to top | Tablatures and chords are parodies/interpretations of the original songs. You may use it for private study, scholarship, research or language learning purposes only