» » »

Skrape, Waste Tabs (ver.2)

Artists:  A B C D E F G H I J K L M N O P Q R S T U V W X Y Z # 

Waste Tabs (ver.2)

Skrape Tabs
 Rating:
4/5 (4 votes)
Waste lessons Tabs too difficult? Try these video lessons and learn fast
                dropped d, i tabbed it out myself, the guitarist uses lynchard guitars and a dunlop crybaby wah in this song, It's a pretty easy song, not too hard to tab out, Skrape is a great band, I saw them last night in San Jose, they were pretty awesome. by the way dont get confused with the guitar and the dj in this song. the only time guitar has the wah is in the verse.

--0-0-0-0--------------0-0-0-0-----------0-0-0-0-----------0-0-0-0------------
--0-0-0-0--------------0-0-0-0-----------0-0-0-0-----------0-0-0-0------------
--0-0-0-0--------------0-0-0-0-----------0-0-0-0-----------0-0-0-0------------
  intro       DJ PART          DJ PART            DJ PART                     

--0-3h5-0-5h6-0-3h5-0h5p0-33-----------xxxx-----------------------------------
--0-3h5-0-5h6-0-3h5-0h5p0-33-----------xxxx-----------------------------------
--0-3h5-0-5h6-0-3h5-0h5p0-33-----------xxxx-----------------------------------
   chorus                           starting of verse                         

---------------------------------8h10p8h10p8h10p8h10p8h10p8h10p8h10p8h10v-----
-xxxxxxxxxxxxxxxxxxxxxxxxxxxxxxxx---------------------------------------------
-xxxxxxxxxxxxxxxxxxxxxxxxxxxxxxxx---------------------------------------------
-xxxxxxxxxxxxxxxxxxxxxxxxxxxxxxxx---------------------------------------------
    verse       with wah up and down     *hint* palm mute by 12 fret          

-0000-00-0-33-22-11-----------------------------------------------------------
    bridge - palm muted                                                       

-2p1p0-0----2p1p0-0-----------------------------------------------------------
 2nd bridge                                                                   

-2p1p0-0----2p1p0-0----2p1p0-0---2p1p0-0-xx-33--------------------------------
-2p1p0-0----2p1p0-0----2p1p0-0---2p1p0-0-xx-33--------------------------------
-2p1p0-0----2p1p0-0----2p1p0-0---2p1p0-0-xx-33--------------------------------
   chorus                                                                     

--12////////////--------------------------------------------------------------
--12////////////--------------------------------------------------------------
--12////////////--------------------------------------------------------------
            at about  2:33 there is a little fill                             

-1-1-1-1-0--------------------------------------------------------------------
-1-1-1-1-0--------------------------------------------------------------------
-1-1-1-1-0--------------------------------------------------------------------
 palm muted and another fill at about  3:14
            
Submit corrections

comments powered by Disqus
↑ Back to top | Skrape Tabs for Waste. Lyrics for acoustic guitar and electric guitar. Tablatures and chords are parodies/interpretations of the original songs. You may use it for private study, scholarship, research or language learning purposes only