» » »

Skrape, Sleep Bass tabs (ver.1)

Artists:  A B C D E F G H I J K L M N O P Q R S T U V W X Y Z # 

Sleep Bass tabs (ver.1)

Skrape Tabs
 Rating:
4/5 (4 votes)
Sleep lessons Tabs too difficult? Try these video lessons and learn fast
                SONG-sleep
BAND-skrape
ALBUM-new killer america

This is a fairly easy song to play and it is mad fun. This is also an awesome song...........listen for 
timing

(5 string bass, dropped D tuning)


Intro/Pre-chorus
-4-7777-000-4-777-0000-11-11-11-11-11-11-11-11-11-11-11-11-11-11-11-11


Verse
-----------------------------------------------
------------------------------------------------
--------------------------------------------------
747474-7-0---0---4444444444444444
---------------------------------------------------



Chorus
-0-0-0-0-0-0-0-0-2-2-2-2-2-2-2-2-1-1-1-1-1-1-1-1-5-5-5-5-5-5-5-5

Chorus
0-0-0-0-0-0-0-0-2-2-2-2-2-2-2-2-1-1-1-1-1-1-1-1-5-5-5-5-5-5-5-8


Bridge
------------------------------------
------------------------------------
-------------------------------------
--------111-3-0--1-3-1-3-11----
0-----------------------------------



Outro
-------------------------------
-------------------------------
-------------------------------
5-8-0------580-----58-0----58--





Order:
Intro/Pre-chorus x4
Verse x4
Intro/Pre-chorus x2
Chorus x1
Verse x4
Intro/Pre-chorus x2
Chorus x1
Bridge x6
Chorus x2
Outro x1
            
Submit corrections

comments powered by Disqus
↑ Back to top | Skrape Bass for Sleep. Lyrics for acoustic guitar and electric guitar. Tablatures and chords are parodies/interpretations of the original songs. You may use it for private study, scholarship, research or language learning purposes only