» » »

Skrape, Searching For Home Tabs (ver.1)

Artists:  A B C D E F G H I J K L M N O P Q R S T U V W X Y Z # 

Searching For Home Tabs (ver.1)

Skrape Tabs
 Rating:
4/5 (4 votes)
Searching For Home lessons Tabs too difficult? Try these video lessons and learn fast
1
                intro:

e: ----------------------------------------------------------------0-----------------|
b: ----------------------------------------------------------------0-----------------|
g: ----------------------------------------------------------------0-----------------|
d: ----------------------------------------------------------------0-----------------|
a: -- 4-5------4-5-4----2-5-----3-5-3--------3-5----3-5-3----3-5--3 -----------------|
e: -5----3------------0-----1--------------1-----2---------3------4 -----------------|

verse: (6x)

e: -------------------------------------------------|
b: -------------------------------------------------|
g: ------------------------------------       ------|(3x)
d: -------------------------------------------------|
a: -- 4-5------4-5-4----2-5-----3-5-3---------------|
e: -5----3------------0-----1-----------------------|

e: ----------------------------------|
b: ----------------------------------|
g: ----------------------------------|
d: ----------------------------------|
a: ---3-5----3-5-3----3-5----3-5-3---|
e: -1-----2---------3------4 --------|

chorus:

e: -5-----1-----5-----1-----5-----1-----1-2----8--7--|
b: -5-----1-----5-----1-----5-----1-----1-2----8--7--|
g: -6-----2-----6-----2-----6-----2-----2-3----9--8--|
d: -7-----3-----7-----3-----7-----3-----3-4----10-9--|
a: -7-----3-----7-----3-----7-----3-----3-4----5--9--|
e: -5-----1-----5-----1-----5-----1-----1-2----3--7--|
            
Submit corrections

comments powered by Disqus
↑ Back to top | Skrape Tabs for Searching For Home. Lyrics for acoustic guitar and electric guitar. 1 Tablatures and chords are parodies/interpretations of the original songs. You may use it for private study, scholarship, research or language learning purposes only