» » »

Skrape, Rise Tabs (ver.1)

Artists:  A B C D E F G H I J K L M N O P Q R S T U V W X Y Z # 

Rise Tabs (ver.1)

Skrape Tabs
Rating:
0/5 (0 votes)
Rise lessons Tabs too difficult? Try these video lessons and learn fast
                Tuning: Drop C (C,G,C,F,A,D)


intro: 				
                                                                           
--14\12p10-11p10-12p10---------x8--------------------------------------------
                                                                              

verse 1: 2 guitars converted into 1

-------------------------------|----------------------------------------------
---4------3------4------3------|----------------------------------------------
---4------3------4------3------|---X2-----------------------------------------
-0-2-0--0-1-0--0-2-0--0-1-0----|----------------------------------------------
-0-2-0--0-1-0--0-2-0--0-1-0----|----------------------------------------------
-0-2-0--0-1-0--0-2-0--0-1-0----|----------------------------------------------
                                                                              

verse 2:

------------------------------|-----------------------------------------------
------------------------------|-----------------------------------------------
------------------------------|-----------------------------------------------
-0-2-0--0-1-0---0-2-0--0-1-0--|--x4-------------------------------------------
-0-2-0--0-1-0---0-2-0--0-1-0--|-----------------------------------------------
-0-2-0--0-1-0---0-2-0--0-1-0--|-----------------------------------------------
                                                                              

bridge:
----------|-------------------------------------------------------------------
----------|-------------------------------------------------------------------
----------|-------------------------------------------------------------------
-0--------|--x8---------------------------------------------------------------
-0-4p3h4--|-------------------------------------------------------------------
-0--------|-------------------------------------------------------------------
                                                                              

chorus:
---------------|--------------------------------------------------------------
---------------|--------------------------------------------------------------
------4--5-----|--------------------------------------------------------------
-0-4--x--x--1--|--x4----------------------------------------------------------
-0-4--2--3--1--|--------------------------------------------------------------
-0-4--------1--|--------------------------------------------------------------
                                                                              

interlude guitar 1:
-3-3-x-3-3-3-3-/-7-7-x-7-7-7-7-/-10-10-x--10-10-10--10-/-12-\-10--|--x4-------
                                                                              

interlude guitar 2:
-1-1-x-1-1-1-1-\-5-5-x-5-5-5-5-\-8-8-x-8-8-8--8-\-10-/-8----------------------
-1-1-x-1-1-1-1-\-5-5-x-5-5-5-5-\-8-8-x-8-8-8--8-\-10-/-8----------------------
-1-1-x-1-1-1-1-\-5-5-x-5-5-5-5-\-8-8-x-8-8-8--8-\-10-/-8----------------------
            

comments powered by Disqus
↑ Back to top | Skrape Tabs for Rise. Lyrics for acoustic guitar and electric guitar. Tablatures and chords are parodies/interpretations of the original songs. You may use it for private study, scholarship, research or language learning purposes only