» » »

Skrape, Blow Up Tabs (ver.1)

Artists:  A B C D E F G H I J K L M N O P Q R S T U V W X Y Z # 

Blow Up Tabs (ver.1)

Skrape Tabs
Rating:
0/5 (0 votes)
Blow Up lessons Tabs too difficult? Try these video lessons and learn fast
                .ENJOY
Tuning is C-G-C-F-A-D

-1--2--3--0---1--2--3--0---1--2--3--0---1--2--3--0----------------------------
-1--2--3--0---1--2--3--0---1--2--3--0---1--2--3--0----------------------------
-1--2--3--0---1--2--3--0---1--2--3--0---1--2--3--0----------------------------
 Intro                                                                        

--------------------------------------|---------------------------------------
--------------------------------------|---------------------------------------
--------------------------------------|---------------------------------------
-1-2-3-0--1-2-3-0--1-2-3-0--1-2-3-0---|-----1-2-3-0---0-0-0--2-3--------------
-1-2-3-0--1-2-3-0--1-2-3-0--1-2-3-0---|-----1-2-3-0---0-0-0--2-3--------------
-1-2-3-0--1-2-3-0--1-2-3-0--1-2-3-0---|-----1-2-3-0---0-0-0--2-3--------------
 Verse                                    End Of Verse/Variation              

--------------------------|---------------------------------------------------
--------------------------|---------------------------------------------------
--------------------------|---------------------------------------------------
--0-0--0--0-0-0--0-0-0----|-0-0--0--0--0--0--0-0--0--9\\8-7-6-0-0-8-7-6-0-0---
--0-0--0--0-0-0--0-0-0----|-0-0--0--0--0--0--0-0--0--9\\8-7-6-0-0-8-7-6-0-0---
--0-0--0--0-0-0--0-0-0----|-0-0--0--0--0--0--0-0--0--9\\8-7-6-0-0-8-7-6-0-0---
 p.m.. .  . . .  . . .      . .  .  .  .  .  . .  .          Chorus           

--------|---------------------------------------------------------------------
--------|---------------------------------------------------------------------
--------|---------------------------------------------------------------------
--0--0--|--1-2-3-0---0--0----1-2-3-0---0--0-----------------------------------
--0--0--|--1-2-3-0---0--0----1-2-3-0---0--0-----------------------------------
--0--0--|--1-2-3-0---0--0----1-2-3-0---0--0-----------------------------------
 p.m..               .  .              .  .          Verse Variation          

-------------------------|----------------------------------------------------
-------------------------|----------------------------------------------------
-------------------------|----------------------------------------------------
---8-7-6-0--0-8-7-6-0--0-|-8-7-6-0-1---1-/--9-9-9-9-9-9--8-7-6-0-8/9-9-9-9-9--
---8-7-6-0--0-8-7-6-0--0-|-8-7-6-0-1---1-/--9-9-9-9-9-9--8-7-6-0-8/9-9-9-9-9--
---8-7-6-0--0-8-7-6-0--0-|-8-7-6-0-1---1-/--9-9-9-9-9-9--8-7-6-0-8/9-9-9-9-9--
   Bridge  Part 1                                                             

-2-1--0---1--0---1--0---8-7-6-0--0-8-7----------------------------------------
-2-1--0---1--0---1--0---8-7-6-0--0-8-7----------------------------------------
-2-1--0---1--0---1--0---8-7-6-0--0-8-7----17///////12-------------------------
   Bridge Part 2                         pick slide                           

--8-7-6-0--0--8-7-6-0-1-------------------------------------------------------
--8-7-6-0--0--8-7-6-0-1-------------------------------------------------------
--8-7-6-0--0--8-7-6-0-1-------------------------------------------------------
 End         Let Ring .................................
            

comments powered by Disqus
↑ Back to top | Skrape Tabs for Blow Up. Lyrics for acoustic guitar and electric guitar. Tablatures and chords are parodies/interpretations of the original songs. You may use it for private study, scholarship, research or language learning purposes only