>
 >
Sometimes 2

Sometimes 2 Guitar Tabs

Skillet - Sometimes 2 chords, tabs, tablatures, lyrics

Guitar lessons | Add/correct | Request | Top 50 tabs Artists:  A B C D E F G H I J K L M N O P Q R S T U V W X Y Z 0-9

Sometimes 2 Guitar Tabs – Skillet

CD, Sheet music, Poster

Do you like Sometimes 2? Share with your friends now
Bass TabsTabsTabs v2Tabs v3Tabs v4Tabs v5

Tuning:          Dropped B

Intro:            
Guitar 1        
C#||----------|---------------------|
G#||----------|---------------------|
 E||----------|---------------------|
 B||--8~--3~--|--5-5-5-5-5-5-5-5-5--|
F#||--8~--3~--|--5-5-5-5-5-5-5-5-5--|
 B||--8~--3~--|--5-5-5-5-5-5-5-5-5--|

Guitar 2        
C#||---------------------------|
G#||--15---15---15---15---15---|
 E||--17b--17b--17b--17b--17b--|
 B||---------------------------|
F#||---------------------------|
 B||---------------------------|

Guitar 1        
C#||----------------------------------------------|
G#||----------------------------------------------|
 E||----------------------------------------------|
 B||--0-0-0--0-0-0---10---0-0-0--0-0-0-10-7-8-----| 2x
F#||--0-0-0--0-0-0---10---0-0-0--0-0-0-10-7-8-----|
 B||--0-0-0--0-0-0---10---0-0-0--0-0-0-10-7-8-----|

Guitar 2 (second time)
C#||--17-17-------------------17-17-------------18-18---|
G#||--------17-17-18-18-17-17-------17-17-18-18---------|
 E||----------------------------------------------------|
 B||----------------------------------------------------|
F#||----------------------------------------------------|
 B||----------------------------------------------------|

Verse:          
Guitar 1        
C#||----------------------------------------------|
G#||----------------------------------------------|
 E||----------------------------------------------|
 B||--0-0-0--0-0-0---10---0-0-0--0-0-0-10-7-8-----| 3x
F#||--0-0-0--0-0-0---10---0-0-0--0-0-0-10-7-8-----|
 B||--0-0-0--0-0-0---10---0-0-0--0-0-0-10-7-8-----|

Guitar 1        
C#|----------------------------------------------|
G#|----------------------------------------------|
 E|----------------------------------------------|
 B|-8-8-8-8--10-10-10-10--8-8-8-8----------------|
F#|-8-8-8-8--10-10-10-10--8-8-8-8--10-10-10-10---|
 B|-8-8-8-8--10-10-10-10--8-8-8-8--10-10-10-10---|
                                    *  *  *  *
Chorus          
Guitar 1        
C#|------------------------------------|
G#|------------------------------------|
 E|------------------------------------|
 B|--8-8-8-5-5-5-5--0-0-0--0-0-0---10--| 2x
F#|--8-8-8-5-5-5-5--0-0-0--0-0-0---10--|
 B|--8-8-8-5-5-5-5--0-0-0--0-0-0---10--|

Guitar 2        
C#||--17-17-------------------17-17-------------18-18---|
G#||--------17-17-18-18-17-17-------17-17-18-18---------|
 E||----------------------------------------------------|
 B||----------------------------------------------------| 2x
F#||----------------------------------------------------|
 B||----------------------------------------------------|

Guitar 1        
C#||-------------------------------------------------------|
G#||-------------------------------------------------------|
 E||-------------------------------------------------------|
 B||--8-8-8-8-5-5-5-5-0-0-0-0-10-10-10-10-8-8-8-8-5-5-5-5--|
F#||--8-8-8-8-5-5-5-5-0-0-0-0-10-10-10-10-8-8-8-8-5-5-5-5--|
 B||--8-8-8-8-5-5-5-5-0-0-0-0-10-10-10-10-8-8-8-8-5-5-5-5--|

Intro           
Guitar 1        
C#||----------------------------------------------|
G#||----------------------------------------------|
 E||----------------------------------------------|
 B||--0-0-0--0-0-0---10---0-0-0--0-0-0-10-7-8-----| 2x
F#||--0-0-0--0-0-0---10---0-0-0--0-0-0-10-7-8-----|
 B||--0-0-0--0-0-0---10---0-0-0--0-0-0-10-7-8-----|

Guitar 2                 (second time)
C#||----5-6-5--8--6-5--||-17-17-------------------17-17-------------18-18---|
G#||--3----------------||-------17-17-18-18-17-17-------17-17-18-18---------|
 E||-------------------||---------------------------------------------------|
 B||-------------------||---------------------------------------------------|
F#||-------------------||---------------------------------------------------|
 B||-------------------||---------------------------------------------------|
Verse           
Chorus          
Bridge          
Guitar 1        
C#||-----|      
G#||-----|      
 E||-----|      
 B||-0~~-|      
F#||-0~~-|      
 B||-0~~-|      

Guitar 2        
C#||-------------------------------------|
G#||-------------------------------------|
 E||-7-7-7-9-9-9-101010-12121212/141414--|
 B||-x-x-x-x-x-x--x-x-x--x-x-x-x--x-x-x--|2x
F#||-5-5-5-7-7-7--8-8-8-10101010/121212--|
 B||-------------------------------------|

Guitar 1        
C#||-----------------------------------|
G#||-----------------------------------|
 E||-----------------------------------|
 B||--8-8-8-8-5-5-5-5-0-0-0-0--0-0-0-0-|
F#||--8-8-8-8-5-5-5-5-0-0-0-0--0-0-0-0-|
 B||--8-8-8-8-5-5-5-5-0-0-0-0--0-0-0-0-|

Guitar 2        
C#||-----------------------------------|
G#||--15----17----18----20----22-------|
 E||-----------------------------------|
 B||-----------------------------------|
F#||-----------------------------------|
 B||-----------------------------------|

Guitar 1        
C#||-------------------------------------------|
G#||-------------------------------------------|
 E||-------------------------------------------|
 B||--8-8-8-8-5-5-5-5-10-10-10-10--10-10-10-10-|
F#||--8-8-8-8-5-5-5-5-10-10-10-10--10-10-10-10-|
 B||--8-8-8-8-5-5-5-5-10-10-10-10--10-10-10-10-|

Guitar 1        
C#||---------------------------------------|
G#||---------------------------------------|
 E||---------------------------------------|
 B||--8-8-8-8-5-5-5-5-0-0-0-0-10-10-10-10--|
F#||--8-8-8-8-5-5-5-5-0-0-0-0-10-10-10-10--|
 B||--8-8-8-8-5-5-5-5-0-0-0-0-10-10-10-10--|

Guitar 1        
C#||----------|---------------------|
G#||----------|---------------------|
 E||----------|---------------------|
 B||--8~--3~--|--5-5-5-5-5-5-5-5-5--|
F#||--8~--3~--|--5-5-5-5-5-5-5-5-5--|
 B||--8~--3~--|--5-5-5-5-5-5-5-5-5--|

Guitar 1        
C#||----------------------------------------------|
G#||----------------------------------------------|
 E||----------------------------------------------|
 B||--0-0-0--0-0-0---10---0-0-0--0-0-0-10-7-8-----| 2x
F#||--0-0-0--0-0-0---10---0-0-0--0-0-0-10-7-8-----|
 B||--0-0-0--0-0-0---10---0-0-0--0-0-0-10-7-8-----|

Chorus:         
Outro:          
Guitar 1        
C#||-----------------------------------------------------------|
G#||-----------------------------------------------------------|
 E||-----------------------------------------------------------|
 B||--0-0-0--0-0-0---10---0-0-0--0-0-0--10---0-0-0--0-0-0--10--|
F#||--0-0-0--0-0-0---10---0-0-0--0-0-0--10---0-0-0--0-0-0--10--|
 B||--0-0-0--0-0-0---10---0-0-0--0-0-0--10---0-0-0--0-0-0--10--|

Guitar 2                 
C#||-----5-6-5--8--6-5--||
G#||---3----------------||
 E||--------------------||
 B||--------------------||3x
F#||--------------------||
 B||--------------------||

Guitar 1        
C#||------------------|
G#||------------------|
 E||------------------|
 B||--0-0-0--0-0-0----| 
F#||--0-0-0--0-0-0----|
 B||--0-0-0--0-0-0----|





Comments


Popular Skillet tabs & chords
Dont Wake Me Bass Tabs
I Trust You 1 Bass Tabs
Those Nights 3 Bass Tabs
Looking For Angels Chords
Rebirthing Chords
Collide Tabs
One Day Too Late Tabs
Yours To Hold 3 Tabs
Savior Ukulele
The Older I Get Ukulele


Song lyrics



↑ Back to top | Tablatures and chords are parodies/interpretations of the original songs. You may use it for private study, scholarship, research or language learning purposes only
© 2014 AZChords.com Contact us | Privacy policy | DMCA | Add/correct tabs | Request tabs | Top 50 tabs