» » »

Skillet, Falling Into The Black Tabs (ver.1)

Artists:  A B C D E F G H I J K L M N O P Q R S T U V W X Y Z # 

Falling Into The Black Tabs (ver.1)

Skillet Tabs
 Rating:
4/5 (4 votes)
Falling Into The Black lessons Tabs too difficult? Try these video lessons and learn fast
                	              Falling Inside The Black  - Skillet
Tuning: Drop D

INTRO
e|-0-8-7-0-2-3-0-8-7-0-10-8-0-8-7-0-2-3-0-8-7-0-10-8-------------------------|
B|---------------------------------------------------------------------------|
G|---------------------------------------------------------------------------|
D|---------------------------------------------------------------------------|
A|---------------------------------------------------------------------------|
D|---------------------------------------------------------------------------|
						(continues in background)

INTRO(CONT.)
e|---------------------------------------------------------------------------|
B|---------------------------------------------------------------------------|
G|---------------------------------------------------------------------------|
D|-2-33--2-33--2-33--55-0---2-33--2-33--2-33--55-0---------------------------|
A|-2-33--2-33--2-33--55-0---2-33--2-33--2-33--55-0---------------------------|
D|-2-33--2-33--2-33--55-0---2-33--2-33--2-33--55-0---------------------------|
	
	REST

VERSE(mainly intro part)
e|----------0-8-7-0-2-3-0-8-7-0-10-8-0-8-7-0-2-3-----------------------------|
B|---------------------------------------------------------------------------|
G|---------------------------------------------------------------------------|
D|-0--002--------------------------------------------------------------------|
A|-0--002--------------------------------------------------------------------|
D|-0--002--------------------------------------------------------------------|

PRE-CHORUS
e|---------------------------------------------------------------------------|
B|---------------------------------------------------------------------------|
G|-5-5-5-55-5555/7-7--7777\5-5-5-55-5555\4-4-4/55-555\4-4-4/55-555-----------|
D|-5-5-5-55-5555/7-7--7777\5-5-5-55-5555\4-4-4/55-555\4-4-4/55-555-----------|
A|-3-3-3-33-3333/5-5--5555\3-3-3-33-3333\2-2-2/33-333\2-2-2/33-333-----------|
D|---------------------------------------------------------------------------|

CHORUS
e|---------------------------------------------------------------------------|
B|---------------------------------------------------------------------------|
G|---------------------------------------------------------------------------|
D|-10-1010--99-99--22-22--00-00----10-1010--99-99--22-22--00-00--------------|
A|-10-1010--99-99--22-22--00-00----10-1010--99-99--22-22--00-00--------------|
D|-10-1010--99-99--22-22--00-00----10-1010--99-99--22-22--00-00--------------|

CHORUS(CONT.)
e|---------------------------------------------------------------------------|
B|---------------------------------------------------------------------------|
G|---------------------------------------------------------------------------|
D|-10-1010--99-99--22-22--00-00----10101010-9999--2--0-----------------------|
A|-10-1010--99-99--22-22--00-00----10101010-9999--2--0-----------------------|
D|-10-1010--99-99--22-22--00-00----10101010-9999--2--0-----------------------|

CHORUS(CONT.)
e|---------------------------------------------------------------------------|
B|---------------------------------------------------------------------------|
G|---------------------------------------------------------------------------|
D|-10101010-9999-9-----------------------------------------------------------|
A|-10101010-9999-9-----------------------------------------------------------|
D|-10101010-9999-9-----------------------------------------------------------|

      REST

   VERSE(Mainly intro part)
e|----------0-8-7-0-2-3-0-8-7-0-10-8-0-8-7-0-2-3-----------------------------|
B|---------------------------------------------------------------------------|
G|---------------------------------------------------------------------------|
D|-0--002--------------------------------------------------------------------|
A|-0--002--------------------------------------------------------------------|
D|-0--002--------------------------------------------------------------------|

PRE-CHORUS
e|---------------------------------------------------------------------------|
B|---------------------------------------------------------------------------|
G|-5-5-5-55-5555/7-7--7777\5-5-5-55-5555\4-4-4/55-555\4-4-4/55-555-----------|
D|-5-5-5-55-5555/7-7--7777\5-5-5-55-5555\4-4-4/55-555\4-4-4/55-555-----------|
A|-3-3-3-33-3333/5-5--5555\3-3-3-33-3333\2-2-2/33-333\2-2-2/33-333-----------|
D|---------------------------------------------------------------------------|

CHORUS
e|---------------------------------------------------------------------------|
B|---------------------------------------------------------------------------|
G|---------------------------------------------------------------------------|
D|-10-1010--99-99--22-22--00-00----10-1010--99-99--22-22--00-00--------------|
A|-10-1010--99-99--22-22--00-00----10-1010--99-99--22-22--00-00--------------|
D|-10-1010--99-99--22-22--00-00----10-1010--99-99--22-22--00-00--------------|

CHORUS(CONT.)
e|---------------------------------------------------------------------------|
B|---------------------------------------------------------------------------|
G|---------------------------------------------------------------------------|
D|-10-1010--99-99--22-22--00-00----10101010-9999--2--0-----------------------|
A|-10-1010--99-99--22-22--00-00----10101010-9999--2--0-----------------------|
D|-10-1010--99-99--22-22--00-00----10101010-9999--2--0-----------------------|

CHORUS/PRE-SOLO
e|---------------------------------------------------------------------------|
B|---------------------------------------------------------------------------|
G|---------------------------------------------------------------------------|
D|-10101010-9999-9---2-33--2-33--2-33-2-33-----------------------------------|
A|-10101010-9999-9---2-33--2-33--2-33-2-33-----------------------------------|
D|-10101010-9999-9---2-33--2-33--2-33-2-33-----------------------------------|

	This is the part that goes under the solo, I don't have the solo yet 
	but I will post it as soon as get it. If you want to help me with it 
	though that would be awesome.
GUITAR 2 DURING SOLO
e|---------------------------------------------------------------------------|
B|---------------------------------------------------------------------------|
G|---------------------------------------------------------------------------|
D|-10-1010--99-99--22-22--00-00----10-1010--99-99--22-22--00-00--------------|
A|-10-1010--99-99--22-22--00-00----10-1010--99-99--22-22--00-00--------------|
D|-10-1010--99-99--22-22--00-00----10-1010--99-99--22-22--00-00--------------|

GUITAR 2(CONT.)
e|---------------------------------------------------------------------------|
B|---------------------------------------------------------------------------|
G|---------------------------------------------------------------------------|
D|-9-9-9-99-9999/10-10-10101010----------------------------------------------|
A|-9-9-9-99-9999/10-10-10101010----------------------------------------------|
D|-9-9-9-99-9999/10-10-10101010----------------------------------------------|

CHORUS
e|---------------------------------------------------------------------------|
B|---------------------------------------------------------------------------|
G|---------------------------------------------------------------------------|
D|-10-1010--99-99--22-22--00-00----10-1010--99-99--22-22--00-00--------------|
A|-10-1010--99-99--22-22--00-00----10-1010--99-99--22-22--00-00--------------|
D|-10-1010--99-99--22-22--00-00----10-1010--99-99--22-22--00-00--------------|

OUTRO
e|---------------------------------------------------------------------------|
B|---------------------------------------------------------------------------|
G|---------------------------------------------------------------------------|
D|-10101010---9999---2222---0000----10101010--9999--2222--0000---------------|
A|-10101010---9999---2222---0000----10101010--9999--2222--0000---------------|
D|-10101010---9999---2222---0000----10101010--9999--2222--0000---------------|

OUTRO(CONT.)
e|---------------------------------------------------------------------------|
B|---------------------------------------------------------------------------|
G|---------------------------------------------------------------------------|
D|-10101010---9999---2222---0000----10101010--9999--2222--0000---------------|
A|-10101010---9999---2222---0000----10101010--9999--2222--0000---------------|
D|-10101010---9999---2222---0000----10101010--9999--2222--0000---------------|

OUTRO(CONT.)
e|---------------------------------------------------------------------------|
B|---------------------------------------------------------------------------|
G|---------------------------------------------------------------------------|
D|-10101010---9999---2222---0000----10101010--9999--2------------------------|
A|-10101010---9999---2222---0000----10101010--9999--2------------------------|
D|-10101010---9999---2222---0000----10101010--9999--2------------------------|

************************************

| /   slide up
| \   slide down
| h   hammer-on
| p   pull-off
| ~   vibrato
| +   harmonic
| x   Mute note
| b   Bend
| pb  Pre-bend
| br  Bend release
| pbr Pre-bend release
| brb Bend release bend

************************************
            
Submit corrections

comments powered by Disqus
↑ Back to top | Skillet Tabs for Falling Into The Black. Lyrics for acoustic guitar and electric guitar. Tablatures and chords are parodies/interpretations of the original songs. You may use it for private study, scholarship, research or language learning purposes only