>
 >
Awake And Alive

Awake And Alive Guitar Tabs

Skillet - Awake And Alive chords, tabs, tablatures, lyrics

Guitar lessons | Add/correct | Request | Top 50 tabs Artists:  A B C D E F G H I J K L M N O P Q R S T U V W X Y Z 0-9

Awake And Alive Guitar Tabs – Skillet

CD, Sheet music, Poster

Do you like Awake And Alive? Share with your friends now
Bass TabsBass Tabs v2Bass Tabs v3Bass Tabs v4ChordsChords v2Chords v3Drum TabsTabsTabs v2Tabs v3Tabs v4Tabs v5Tabs v6Tabs v7Tabs v8Ukulele
-------------------------------------------------------------------------------
-------------------------------------------------------------------------------

Tuning: Drop D (DADGBe)

Intro: Part 1
e|---------------------------------------------------------------------------|
B|---------------------------------------------------------------------------|
G|---------------------------------------------------------------------------|
D|---------------------------------------------------------------------------|
A|---------------------------------------------------------------------------|
D|-2-2-2-2-2-2-2-2-2-2-2-2-2-2-2-2-2-2-2-2-2-2-2-2-2-2-2-2-2-2-2-2-----------|
   * * * * * * * * * * * * * * * * * * * * * * * * * * * * * * * *

e|---------------------------------------------------------------------------|
B|---------------------------------------------------------------------------|
G|---------------------------------------------------------------------------|
D|--+14-+14-+14-+14----------------------------------------------------------|
A|---------------------------------------------------------------------------|
D|---------------------------------------------------------------------------|

Intro: Part 2
e|---------------------------------------------------------------------------|
B|---------------------------------------------------------------------------|
G|---------------------------------------------------------------------------|
D|-2--2---2---0--2--x--x--2---0---7--7---7---7--10--x--x--12-----------------|
A|-2--2---2---0--2--x--x--2---0---7--7---7---7--10--x--x--12-----------------|
D|-2--2---2---0--2--x--x--2---0---7--7---7---7--10--x--x--12-----------------| x2

Verse 1:
e|---------------------------------------------------------------------------|
B|---------------------------------------------------------------------------|
G|---------------------------------------------------------------------------|
D|--2--2---2--2---2--2-----2--2---2--2---2--2----x--x--x--0------------------|
A|--2--2---2--2---2--2-----2--2---2--2---2--2----x--x--x--0------------------|
D|--2--2---2--2---2--2-----2--2---2--2---2--2----x--x--x--0------------------|
                  *  *                   *  *

e|---------------------------------------------------------------------------|
B|---------------------------------------------------------------------------|
G|---------------------------------------------------------------------------|
D|--2--2---2--2---2--2-----2--2---2--2---2--2----12--x--0--0--0--0-----------|
A|--2--2---2--2---2--2-----2--2---2--2---2--2----12--x--0--0--0--0-----------|
D|--2--2---2--2---2--2-----2--2---2--2---2--2----12--x--0--0--0--0-----------|
                  *  *                   *  *           *  *  *  *

e|---------------------------------------------------------------------------|
B|---------------------------------------------------------------------------|
G|------------------------------------------------------------12-------------|
D|--2--2---2--2---2--2-----2--2---2--2---2--2----x--x--x---x--10-------------|
A|--2--2---2--2---2--2-----2--2---2--2---2--2----x--x--x---x--10-------------|
D|--2--2---2--2---2--2-----2--2---2--2---2--2----x--x--x---x--10-------------|
                  *  *                   *  *



e|---------------------------------------------------------------------------|
B|---------------------------------------------------------------------------|
G|---------------------------------------------------------------------------|
D|--7--7---7--7---7--7---5--5---5--5--0----0--0------------------------------|
A|--7--7---7--7---7--7---5--5---5--5--0----0--0------------------------------|
D|--7--7---7--7---7--7---5--5---5--5--0----0--0------------------------------|
                  *  * 

Chorus: 
e|---------------------------------------------------------------------------|
B|---------------------------------------------------------------------------|
G|------------5--5--5--------------------------------------------------------|
D|--2--2------5--5--5------5--5-----0--0--0----------------------------------|
A|--2--2------3--3--3------5--5-----0--0--0----------------------------------|
D|--2--2-------------------5--5-----0--0--0----------------------------------| x2

e|---------------------------------------------------------------------------|
B|---------------------------------------------------------------------------|
G|----------------5--5----5--------------------------------------------------|
D|--2--2----2-----5--5----5-----5--5--5----0--0------------------------------|
A|--2--2----2-----3--3----3-----5--5--5----0--0------------------------------|
D|--2--2----2-------------------5--5--5----0--0------------------------------|

e|---------------------------------------------------------------------------|
B|---------------------------------------------------------------------------|
G|--5---5---5---5---5----2---2---2----4--4--4--------------------------------|
D|--5---5---5---5---5----2---2---2----4--4--4--------------------------------|
A|--3---3---3---3---3----0---0---0----2--2--2--------------------------------|
D|---------------------------------------------------------------------------|

Post Chorus:
e|---------------------------------------------------------------------------|
B|---------------------------------------------------------------------------|
G|---------------------------------------------------------------------------|
D|-2--2---2---0--2--x--x--2---0---7--7---7---7--10--x--x--12-----------------|
A|-2--2---2---0--2--x--x--2---0---7--7---7---7--10--x--x--12-----------------|
D|-2--2---2---0--2--x--x--2---0---7--7---7---7--10--x--x--12-----------------| x2

Verse 2:
e|---------------------------------------------------------------------------|
B|---------------------------------------------------------------------------|
G|---------------------------------------------------------------------------|
D|--2--2---2--2---2--2-----2--2---2--2---2--2----x--x--x--0------------------|
A|--2--2---2--2---2--2-----2--2---2--2---2--2----x--x--x--0------------------|
D|--2--2---2--2---2--2-----2--2---2--2---2--2----x--x--x--0------------------|
                  *  *                   *  *

e|---------------------------------------------------------------------------|
B|---------------------------------------------------------------------------|
G|---------------------------------------------------------------------------|
D|--2--2---2--2---2--2-----2--2---2--2---2--2----12--x--0--0--0--0-----------|
A|--2--2---2--2---2--2-----2--2---2--2---2--2----12--x--0--0--0--0-----------|
D|--2--2---2--2---2--2-----2--2---2--2---2--2----12--x--0--0--0--0-----------|
                  *  *                   *  *           *  *  *  *

e|---------------------------------------------------------------------------|
B|---------------------------------------------------------------------------|
G|------------------------------------------------------------12-------------|
D|--2--2---2--2---2--2-----2--2---2--2---2--2----x--x--x---x--10-------------|
A|--2--2---2--2---2--2-----2--2---2--2---2--2----x--x--x---x--10-------------|
D|--2--2---2--2---2--2-----2--2---2--2---2--2----x--x--x---x--10-------------|
                  *  *                   *  *



e|---------------------------------------------------------------------------|
B|---------------------------------------------------------------------------|
G|---------------------------------------------------------------------------|
D|--7--7---7--7---7--7---5--5---5--5--0---x--x--x--0-------------------------|
A|--7--7---7--7---7--7---5--5---5--5--0---x--x--x--0-------------------------|
D|--7--7---7--7---7--7---5--5---5--5--0---x--x--x--0-------------------------|
                  *  * 

Chorus: 
e|---------------------------------------------------------------------------|
B|---------------------------------------------------------------------------|
G|------------5--5--5--------------------------------------------------------|
D|--2--2------5--5--5------5--5-----0--0--0----------------------------------|
A|--2--2------3--3--3------5--5-----0--0--0----------------------------------|
D|--2--2-------------------5--5-----0--0--0----------------------------------| x2

e|---------------------------------------------------------------------------|
B|---------------------------------------------------------------------------|
G|----------------5--5----5--------------------------------------------------|
D|--2--2----2-----5--5----5-----5--5--5----0--0------------------------------|
A|--2--2----2-----3--3----3-----5--5--5----0--0------------------------------|
D|--2--2----2-------------------5--5--5----0--0------------------------------|

e|---------------------------------------------------------------------------|
B|---------------------------------------------------------------------------|
G|--5---5---5---5---5----2---2---2----4--4--4--------------------------------|
D|--5---5---5---5---5----2---2---2----4--4--4--------------------------------|
A|--3---3---3---3---3----0---0---0----2--2--2--------------------------------|
D|---------------------------------------------------------------------------|

Post Chorus 2:
e|---------------------------------------------------------------------------|
B|---------------------------------------------------------------------------|
G|---------------------------------------------------------------------------|
D|--2--2----2--2----5--7--0----2--2--x--x--2--2----5--7--0-------------------|
A|--2--2----2--2----5--7--0----2--2--x--x--2--2----5--7--0-------------------|
D|--2--2----2--2----5--7--0----2--2--x--x--2--2----5--7--0-------------------| x2

Bridge:
e|---------------------------------------------------------------------------|
B|---------------------------------------------------------------------------|
G|----------------------------------------5---5--5---------------------------|
D|--4--5--7---7--7--0--0--2---2--2--0--0--5---5--5--0---0--0-----------------|
A|--4--5--7---7--7--0--0--2---2--2--0--0--3---3--3--0---0--0-----------------|
D|--4--5--7---7--7--0--0--2---2--2--0--0------------0---0--0-----------------|


e|---------------------------------------------------------------------------|
B|---------------------------------------------------------------------------|
G|--2--------4--------5-------7----------------------------------------------|
D|--2--------4--------5-------7----------------------------------------------|
A|--0--------2--------3-------5----------------------------------------------|
D|---------------------------------------------------------------------------|
    *        *        *       *
   (x6)     (x10)     (x6)    (x6)

Solo: Guitar 1
e|---------------------------------------------------------------------------|
B|----------------------------------------5------------7h8p7-7---------------|
G|---------------------7-5-4h5p4-------------------7h9------9----------------|
D|---------5-7-9---4-5-----------5p4--4-5----7-9-10--------------------------|
A|---5-7-9-------------------------------------------------------------------|
D|---------------------------------------------------------------------------|
     * * * * * *                             * * * * *

e|------------12-14h15p14-12------------------12-14h15h17p15p14-12-----------|
B|----------12--------------12--------------12--------------------12---------|
G|--11h12h14-----------------12-11-11h12h14-------------------------12--11---|
D|---------------------------------------------------------------------------|
A|---------------------------------------------------------------------------|
D|---------------------------------------------------------------------------|

e|-----------------------------------------12-14-15-17-19/20\19-17-19/20\19--|
B|-----------------------12--12-13-12h13-15----------------------------------|
G|--11h12-11h12h14-12h14---14------------------------------------------------|
D|---------------------------------------------------------------------------|
A|---------------------------------------------------------------------------|
D|---------------------------------------------------------------------------|

Solo: Guitar 2
e|---------------------------------------------------------------------------|
B|---------------------------------------------------------------------------|
G|--5--5--5--5--5------------------------------------------------------------|
D|--5--5--5--5--5---2--2--2--2--2-----5----------7---------9-----------------|
A|--3--3--3--3--3---2--2--2--2--2-----3----------5---------6-----------------|
D|------------------2--2--2--2--2--------------------------------------------|
                                      *          *         *
                                     (x8)        (x4)     (x4)

e|---------------------------------------------------------------------------|
B|---------------------------------------------------------------------------|
G|---------------------------------------------------------------------------|
D|--2--2---2---0--2---x--x----+14--------------------------------------------|
A|--2--2---2---0--2---x--x---------------------------------------------------|
D|--2--2---2---0--2---x--x---------------------------------------------------|


Chorus: 
e|---------------------------------------------------------------------------|
B|---------------------------------------------------------------------------|
G|------------5--5--5--------------------------------------------------------|
D|--2--2------5--5--5------5--5-----0--0--0----------------------------------|
A|--2--2------3--3--3------5--5-----0--0--0----------------------------------|
D|--2--2-------------------5--5-----0--0--0----------------------------------| x2

e|---------------------------------------------------------------------------|
B|---------------------------------------------------------------------------|
G|----------------5--5----5--------------------------------------------------|
D|--2--2----2-----5--5----5-----5--5--5----0--0------------------------------|
A|--2--2----2-----3--3----3-----5--5--5----0--0------------------------------|
D|--2--2----2-------------------5--5--5----0--0------------------------------|

e|---------------------------------------------------------------------------|
B|---------------------------------------------------------------------------|
G|--5---5---5---5---5----2---2---2----4--4--4--------------------------------|
D|--5---5---5---5---5----2---2---2----4--4--4--------------------------------|
A|--3---3---3---3---3----0---0---0----2--2--2--------------------------------|
D|---------------------------------------------------------------------------|

Outro:
e|---------------------------------------------------------------------------|
B|---------------------------------------------------------------------------|
G|---------------------------------------------------------------------------|
D|--2--2----2--2----5--7--0----2--2--x--x--2--2----5--7--0-------------------|
A|--2--2----2--2----5--7--0----2--2--x--x--2--2----5--7--0-------------------|
D|--2--2----2--2----5--7--0----2--2--x--x--2--2----5--7--0-------------------| x2



************************************

| /   slide up
| \   slide down
| h   hammer-on
| p   pull-off
| ~   vibrato
| +   harmonic
| x   Scratch
| b   Bend
| pb  Pre-bend
| br  Bend release
| pbr Pre-bend release
| brb Bend release bend
| *   Palm Mute 

************************************





Comments


Popular Skillet tabs & chords
Promise Blender Bass Tabs
Say Goodbye Bass Tabs
The Older I Get Chords
Angel Fall Down Tabs
Falling Inside The Black 2 Tabs
Forsaken (Intro) Tabs
Last Night Tabs
Sometimes Tabs
The Older I Get Tabs
Comatose Ukulele


Song lyrics



↑ Back to top | Tablatures and chords are parodies/interpretations of the original songs. You may use it for private study, scholarship, research or language learning purposes only
© 2014 AZChords.com Contact us | Privacy policy | DMCA | Add/correct tabs | Request tabs | Top 50 tabs