>
 >
Sono Veloce

Sono Veloce Bass Tabs

Skiantos - Sono Veloce chords, tabs, tablatures, lyrics

Guitar lessons | Add/correct | Request | Top 50 tabs Artists:  A B C D E F G H I J K L M N O P Q R S T U V W X Y Z 0-9

Sono Veloce Bass Tabs – Skiantos

CD, Sheet music, Poster

Do you like Sono Veloce? Share with your friends now
Bass Tabs
SKIANTOS - SONO VELOCE
BASSIST: FRANCO FRANKIE GROSSOLANI VILLANI

VERSE

E -------------------------------------|
A --7-7--5--7--------------------------|
D ------------------------7--9-9-9-----|
G --------------7--9-9-9---------------|

BRIDGE

E -------------|
A --7----------|
D ------4-5-4--|
G -------------|      BACK TO THE VERSE

BREAK

E --5--------------5-----------3---------------3-----------|
A -----5-7-5---------5-7-5-------3-5-3-----------3-5-3-----|
D -----------7-5------------------------5-3------------5-3-|
G ---------------------------------------------------------|

OUTRO

E 3--3-3---5--5-5--------------------5-| X4
A -----------------5--3--5--3--5---3---|
D -------------------------------------|
G -------------------------------------|

E --3-3-3-3--5--3--0-0--5-4------------|
A ---------------------------0---------|
D -------------------------------------|
G -------------------------------------|


SONO VELOCE!!!!
JAH WOBBLE IS GOD





Comments


Popular Skiantos tabs & chords
Fagioli Bass Tabs
Kinotto Bass Tabs
Largo Allavanguardia Bass Tabs
Gelati Chords
Mi Piaccion Le Sbarbine Tabs
Sono Rozzo Sono Grezzo Tabs
Gelati Ukulele


Song lyrics



↑ Back to top | Tablatures and chords are parodies/interpretations of the original songs. You may use it for private study, scholarship, research or language learning purposes only
© 2014 AZChords.com Contact us | Privacy policy | DMCA | Add/correct tabs | Request tabs | Top 50 tabs