>
 >
Kinotto

Kinotto Bass Tabs

Skiantos - Kinotto chords, tabs, tablatures, lyrics

Guitar lessons | Add/correct | Request | Top 50 tabs Artists:  A B C D E F G H I J K L M N O P Q R S T U V W X Y Z 0-9

Kinotto Bass Tabs – Skiantos

CD, Sheet music, Poster

Do you like Kinotto? Share with your friends now
Bass Tabs
SKIANTOS - KINOTTO
BASSIST: Franco "Frankie Grossolani" Villani

INTRO/VERSE

E ----------------------------|
A --5---5-7-------------7-5---|
D ----------4-5-----5-4-------|
G ----------------------------|

BRIDGE
                           X4
E -----------------------------|-------------|
A -5----------7-----------5----|-7-5-7-5-----|
D ----5-----7---7--9----7------|---------5---|
G ------7-5----------9-7-------|-------------|

CHORUS

E ---------------------------|
A --------------------7---5--|
D --------7---5---5-4--------|
G --7---5--------------------|


UN KINOTTO OGNI DUE ORE FA PASSARE IL MALUMORE...

JAH WOBBLE IS GOD!!!





Comments


Popular Skiantos tabs & chords
Fagioli Bass Tabs
Largo Allavanguardia Bass Tabs
Sono Veloce Bass Tabs
Gelati Chords
Mi Piaccion Le Sbarbine Tabs
Sono Rozzo Sono Grezzo Tabs
Gelati Ukulele


Song lyrics



↑ Back to top | Tablatures and chords are parodies/interpretations of the original songs. You may use it for private study, scholarship, research or language learning purposes only
© 2014 AZChords.com Contact us | Privacy policy | DMCA | Add/correct tabs | Request tabs | Top 50 tabs