>
 >
Fagioli

Fagioli Bass Tabs

Skiantos - Fagioli chords, tabs, tablatures, lyrics

Guitar lessons | Add/correct | Request | Top 50 tabs Artists:  A B C D E F G H I J K L M N O P Q R S T U V W X Y Z 0-9

Fagioli Bass Tabs – Skiantos

CD, Sheet music, Poster

Do you like Fagioli? Share with your friends now
Bass Tabs
SKIANTOS - FAGIOLI (45 giri version)
BASSIST: Franco "Frankie Grossolani" Villani

VERSE

E -------------------------------------|
A --7-7---7-7-7--7-7-7---7/4---5-------|
D ---------------------7---------------|
G ------9-------9-------------6---7----|

VARIATION

E -------------------------------------|
A --7-7---7-7-7--7-7-7---7/4---5-------|
D ---------------------9---------------|
G ------9-------9-------------6---7----|


BRIDGE

E -----------------------------------------------------------|
A ----5-5-5---5-5-5---5-5-5-------7-7-7---7-7-7---7-7-7------|
D --5-------5-------5-------5---7-------7-------7-------7----|
G -----------------------------------------------------------|

I FAGIOLI NON POSSO PIU MANGIARE...

MITICI SKIANTOS!!!!!!!!

JAH WOBBLE IS GOD!





Comments


Popular Skiantos tabs & chords
Kinotto Bass Tabs
Largo Allavanguardia Bass Tabs
Sono Veloce Bass Tabs
Gelati Chords
Mi Piaccion Le Sbarbine Tabs
Sono Rozzo Sono Grezzo Tabs
Gelati Ukulele


Song lyrics



↑ Back to top | Tablatures and chords are parodies/interpretations of the original songs. You may use it for private study, scholarship, research or language learning purposes only
© 2014 AZChords.com Contact us | Privacy policy | DMCA | Add/correct tabs | Request tabs | Top 50 tabs