» » »

Sisters Of Mercy, We Are The Same, Susanne Tabs (ver.1)

Artists:  A B C D E F G H I J K L M N O P Q R S T U V W X Y Z # 

We Are The Same, Susanne Tabs (ver.1)

Sisters Of Mercy Tabs
 Rating:
4/5 (4 votes)
We Are The Same, Susanne lessons Tabs too difficult? Try these video lessons and learn fast
1
                
~ : let ring
r : release
/ : slide

Chords during Verse:

A C G B

Chords during Chorus:

D C Bb G A
D C Bb G E

Bass during Intro and Verse:

G|-----------------------------------------------|
D|-----------------------------------------------|
A|-00000000—33333333----------22222222-----------|
A|-------------------33333333--------------------|

Guitar:

E|------------------------------------8-7~----------|
A|----------------------------------8---------------|
G|--------------------------------------------------|
D|--------------------------------------------------|
A|--------------------------------------------------|
A|--------------------------------------------------|

Guitar 1 during Intro and Verse:

E|--------------------------------------------------|
B|--------------------------------------------------|
G|--22222222--55555555------------44444444----------|
D|--22222222--55555555--55555555--44444444----------|
A|--00000000--33333333--55555555--22222222----------|
E|----------------------33333333--------------------|

Guitar 2 during Intro and Verse:

E|-------------------------------------------------|
B|----1-0--------0------0---------0------1-0-------|
G|--0-----2r0------0-----------0-------0-----------|
D|------------------------2------------------------|
A|-------------------------------------------------|
E|-------------------------------------------------|

Bass during Chorus:

G|--------------------------------------------------|
D|--------------------------------------------------|
A|--55555555--33333333--11111111--------------------|
E|--------------------------------3333/5555---------|

G|--------------------------------------------------|
D|--------------------------------------------------|
A|--55555555--33333333--11111111--------------------|
E|--------------------------------3333/0000---------|

Guitar During Chorus:

E|--------------------------------------------------|
B|--------------------------------------------------|
G|--77777777--55555555--33333333--------------------|
D|--77777777--55555555--33333333--5555/7777---------|
A|--55555555--33333333--11111111--5555/7777---------|
E|--------------------------------3333/5555---------|

E|--------------------------------------------------|
B|--------------------------------------------------|
G|--77777777--55555555--33333333--------------------|
D|--77777777--55555555--33333333--5555/2222---------|
A|--55555555--33333333--11111111--5555/2222---------|
E|--------------------------------3333/0000---------|

During the Second Chorus, Guitar 2 plays this:
 
E|-----------------------------------------------------------------|
B|-----1----3-1------1-----3-1------1-----3-1----------------------|
G|--0----0--------0----0---------0----0----------------------------|
D|-----------------------------------------------5-5-5-5/7-7-7-7---|
A|-----------------------------------------------5-5-5-5/7-7-7-7---|
E|-----------------------------------------------3-3-3-3/5-5-5-5---|

E|-----------------------------------------------------------------|
B|-----1----3-1------1-----3-1------1-----3-1----------------------|
G|--0----0--------0----0---------0----0----------------------------|
D|-----------------------------------------------5-5-5-5/2-2-2-2---|
A|-----------------------------------------------5-5-5-5/2-2-2-2---|
E|-----------------------------------------------3-3-3-3/0-0-0-0---|


Counting the days in the haze around you
Susanne on the wall

No pain, summer rain
I'm lost for stupid again
We are the same
Give it a name Susanne

Counting the days in the haze around you
Susanne let the ether fall
Out of phase, I am all around you
Susanne on the wall

No pain, summer rain
I'm lost for stupid again
We are the same
Give it a name Susanne

So there you have another brilliant song by The Sisters Of Mercy. Now that 
you know how to play it, all you need is to find a sexy Taurus with the voice 
of an intellectual love god to sing along ;) Enjoy, Vaggs.
            
Submit corrections

comments powered by Disqus
↑ Back to top | Sisters Of Mercy Tabs for We Are The Same, Susanne. Lyrics for acoustic guitar and electric guitar. 1 Tablatures and chords are parodies/interpretations of the original songs. You may use it for private study, scholarship, research or language learning purposes only