» » »

Sisters Of Mercy, Valentine Bass tabs (ver.1)

Artists:  A B C D E F G H I J K L M N O P Q R S T U V W X Y Z # 

Valentine Bass tabs (ver.1)

Sisters Of Mercy Tabs
Rating:
5/5 (3 votes)
Valentine lessons Tabs too difficult? Try these video lessons and learn fast
                "Valentine" by The Sisters Of Mercy (from the album "Some Girls Wander by Mistake")

Comments/corrections to 
 
                            Guitar
                            ------
Riff 1
------
e|-------4--------4-----------4------4-----4---
B|-0--2----2----2---2---0--2----2--2---0-2-----
G|---------------------------------------------

Riff 2
------
e|-0-2-2-2-2-2-2-2-2-2-2-2-2-2-2-2-2-2-2-2------------
B|------------------------------------------0--1--2---

Riff 3
------
e|-0-2-2-2-2-2-2-2-2-2-2-2-2-2-2-2-2-2-2-2-7-9-9-7-9--
B|----------------------------------------------------

Riff 4
------
e|------------------------------------------
B|------------------------5--4--2---0---2---
G|------------------------------------------

Riff 5
------
e|------------------------------------------
B|------------------------14-14-14-14-14-14-
G|------------------------------------------

                              Bass
                              ----
Riff 1
------
G|--------
D|--------
A|-4------
E|--------

Riff 2
------
G|----------------------------------------------------
D|-2-4-4-4-4-4-4-4-4-4-4-4-4-4-4-4-4-4-4-4------------
B|------------------------------------------2--3--4---
E|----------------------------------------------------

Riff 3
------
G|-----------------------------------------4-6-6-4-6--
D|-2-4-4-4-4-4-4-4-4-4-4-4-4-4-4-4-4-4-4-4------------
B|----------------------------------------------------
E|----------------------------------------------------

Riff 4
------
G|--------------------------------------------------------------
D|--------------------------------------------------------------
A|-4-----------------0------------------4-----------------------
E|-------------------------------------------------------2------

How To Play It:

         |    Intro    |    Verse    |Chorus|    Verse    |Chorus|
Guitar 1 | 1 1 1 1 2 3 | 1 1 1 1 1 1 | 2  3 | 1 1 1 1 1 1 | 2  3 |
Guitar 2 |             | 4 4         | 2  3 | 4 4         | 2  3 |
Bass     | 1 1 1 1 2 3 | 1 1 1 1 1 1 | 2  3 | 1 1 1 1 1 1 | 2  3 |

         |       |                |Chorus|    Verse    |Chorus|
Guitar 1 |       | 1   1   1   1  | 2  3 | 1 1 1 1 1 1 | 2  3 |
Guitar 2 |       |             5  | 2  3 | 4 4         | 2  3 |   
Bass     | 1     | 4              | 2  3 | 1 1 1 1 1 1 | 2  3 | 1

Notes:
------
Bass riff 4 is spread out so that it lasts as long as 4 guitar riff 1's

------------------------------------------------------------
               
------------------------------------------------------------
            
Submit corrections

comments powered by Disqus
↑ Back to top | Sisters Of Mercy Bass for Valentine. Lyrics for acoustic guitar and electric guitar. Tablatures and chords are parodies/interpretations of the original songs. You may use it for private study, scholarship, research or language learning purposes only