» » »

Sisters Of Mercy, Untitled Tabs (ver.2)

Artists:  A B C D E F G H I J K L M N O P Q R S T U V W X Y Z # 

Untitled Tabs (ver.2)

Sisters Of Mercy Tabs
Rating:
0/5 (0 votes)
Untitled lessons Tabs too difficult? Try these video lessons and learn fast
                THE SISTERS OF MERCY - "Untitled" 

(off the unofficial album "Kill the lights")

Comments, corrections, etc. welcome



Instrumental

Capo on fret 4.

Riff #1:

e |---------0-----------------0---------------------------
B |-----3-----3-----------1-----1---------------0---------
G |---2---2-----2-----------2-----2---------0-----0-------
D |-0-------------------2-----------2r0---2---2-----2-----
A |---------------3r2-0-----------------2-------------2r0-
E |-------------------------------------------------------

   ----------------------|   
   -----1---0---1r0------|
   -------2---------2r0--|
   ---2-------2----------|
   -0--------------------|   
   ----------------------|  


Riff #2:

e |---------0-----------------0---------------------0---
B |-----3-----3-----------1-----1---------------0-------
G |---2---2-----2-----------2-----2---------0-----0---0-
D |-0-------------------2-----------2r0---2---2---------
A |---------------3r2-0-----------------2---------------
E |-----------------------------------------------------

   ----------------------|
   -1r0-------0-1r0------|
   -----2---2-------2r0--|
   -------2--------------|
   -0--------------------|   
   ----------------------|  


"Riff" #3:

e |-0--2---2h3r2-0----0---------------------0--2-2h3r2-0---------
B |-1--3-3---------3--2---------------------1--3---------3-------
G |-0--2--------------2---------------------0--2-----------------
D |-2--0--------------2--2-------2---2h3r2--2--0-----------------
A |-3-----------------0------0-2---2--------3--------------------
E |------------------------0-------------------------------------

(*)
   ------2-2--2--0--------------2-2--2--0--------------2-2--2--0-
   -0-0--2-2--3--2---------0-0--2-2--3--2---------0-0--2-2--3--2-
   -1-1--4-4--2--2---------1-1--4-4--2--2---------1-1--4-4--2--2-
   -2-2--4-4--0--2---------2-2--4-4--0--2---------2-2--4-4--0--2-
   -2-2--2-2-----0--0------2-2--2-2-----0--0------2-2--2-2-----0-
   -0-0---------------3-2--0-0---------------3-2--0-0------------

   ---------0--0------------|
   ---------1--2------------|
   ---------0--2------------|
   ---------2--2------------|
   --0------3--0-0h2-2r0----|
   ----3-2---------------3--|
				      (*)

The song is played:

#1  x4

#2  x1

#1  x9

#3  x1

#1  x4

#3  x1

#1  x2

#3  x1

and repetition of the part between the asterisks till fade. 
A bit into the song, another guitar joins riff #1 with chords in this 
progression:

x0023x

x02230

022000

x02230


Note: Riff #1 doesn't stay the same throughout the song. It's varied mainly 

e |---------0h3r0-------
B |-----3---------3-1r0-
G |---2---2-------------   etc...
D |-0-------------------
A |---------------------
E |---------------------

but I don't bother with these. There's plenty of room for improvisations 
anyway, as the song is, to say the least, quite repetitive.
            

comments powered by Disqus
↑ Back to top | Sisters Of Mercy Tabs for Untitled. Lyrics for acoustic guitar and electric guitar. Tablatures and chords are parodies/interpretations of the original songs. You may use it for private study, scholarship, research or language learning purposes only