>
 >
Torch 1

Torch 1 Bass Tabs

Sisters Of Mercy - Torch 1 chords, tabs, tablatures, lyrics

Guitar lessons | Add/correct | Request | Top 50 tabs Artists:  A B C D E F G H I J K L M N O P Q R S T U V W X Y Z 0-9

Torch 1 Bass Tabs – Sisters Of Mercy

CD, Sheet music, Poster

Do you like Torch 1? Share with your friends now
Bass TabsBass Tabs v2
"Torch" by The Sisters of Mercy (from the album "Floodland")



E             C
Am           Bm
        G                D              A
E            G                 C                  Bm
        G     D         A


C#m                      B
C#m                    B
                D              
          C         Em


*** The bass for the above is simply playing the root note of each
chord (if the chord is a C, play a C; if the chord is a C-, play a C).
(If you don't what notes are what, e-mail me and I will give you a
*quick* theory lesson... this offer for a short time only!)

    D                     C                       G
    1  &  2  &   3   &  4  & 1  &   2  & 3  &  4   &  
G --------------------------|------------------------|
D --------------------------|----------------------4-|
A --5--------5---7---5--7--3|----------3-5--3--5-----|
E --------------------------|------------------------|

     G                Bm
    1 &  2 &  3 &   4 &    1  &  2  &    1---2---3
G -----------------------|---------------------------|
D --5---------5-7---5-4--|---------------5---4-------|
A ---------5-------------|----------5------------5---|
E -----------------------|---------------------------|

                      C                    Em
    1 & 2 & 3 & 4 &   1   & 2 &   3 &   4  &    
G ------------------|-------------------------|
D ----------4---4-2-|---------2---4-2---4-s9--|  <- slide up to 9
A --2---- 5---5-----|-------------------------|
E ------------------|-------------------------|

Hold the next two measures then repeat all 8 measures (the above 6 + the 2)
for the next half a verse.  Notice that what's going on is the final note
in a lot of the measures are "anticipations", that is, the bass note for the
following measure is played a half-beat ahead.

D          C
    G              Bm
            C            Em


Chorus: (repeat)



Break: E

Bass:
G--------------------------------------------------------------
D--7-9-7--------------------------7-9-7------------------------
A--------10--9--7------7-7-7------------10--9--7-----7---------
E------------------10-----------------------------10-----------

G--------------------------------------------------------------
D--7-9-7---------------9--7-7--9--10----7-9-7--------------------
A--------10--9--7--9--10--9-9-10--12----------10--9--7-----7-----
E-----------------------------------------------------10-------
                       ^^^^^^^^^^^^^
  actually, the bass doesn't really play the top notes (B A A B C),
  some woodwind does, but if you're playing alone, then it sounds 
  better this way.


"I think Philip Roth is a great writer, but I wouldn't want to shake his hand."
                                                          - Jacqueline Susann





Comments


Popular Sisters Of Mercy tabs & chords
Dominion Bass Tabs
Emma 1 Bass Tabs
Lights 1 Bass Tabs
Lucretia My Reflection 1 Bass Tabs
Marian 1 Bass Tabs
1959 Chords
Temple Of Love Chords
195 Tabs
Dominion Tabs
Lights Tabs


Song lyrics



↑ Back to top | Tablatures and chords are parodies/interpretations of the original songs. You may use it for private study, scholarship, research or language learning purposes only
© 2014 AZChords.com Contact us | Privacy policy | DMCA | Add/correct tabs | Request tabs | Top 50 tabs