>
 >
Floorshow

Floorshow Guitar Tabs

Sisters Of Mercy - Floorshow chords, tabs, tablatures, lyrics

Guitar lessons | Add/correct | Request | Top 50 tabs Artists:  A B C D E F G H I J K L M N O P Q R S T U V W X Y Z 0-9

Floorshow Guitar Tabs – Sisters Of Mercy

CD, Sheet music, Poster

Do you like Floorshow? Share with your friends now
Tabs
Auther: The Sisters of mercy
Should be played with some medium distortion

*************************************************************************=
I Declare This Tab is all my own work, and it was made only by me using =
my ears and some luck. It lacks however the second part of the solo, so =
if somebody cares to transcribe it i would be very grateful. Any =

*************************************************************************=

Riff 1a (Guitar, or top stings on bass, theoretically in this part it =
should be=20
a low B)

E|-----------------------------------------------------|
B|-----------------------------------------------------|
G|-----------------------------------------------------|
D|-----------------------------------------------------|
A|-----------------------------------------------------|
E|-3---5--5-5-5---3---5--5---3---5-5-5-5-5--5--3--0--0-|
Play Twice

Riff 1b

E|-----------------------------------------------------|
B|-----------------------------------------------------|
G|-----------------------------------------------------|
D|-----------------------------------------------------|
A|-3---5--5-5-5---3---5--5---3---5-5-5-5-5--5--3--0--0-|
E|-----------------------------------------------------|
Once Again, Play Twice


CHORUS
  TR~~~~~~~~          TR~~~  TR~~~
E|--------------------------------------------------------|
B|-333333333-5^^5^-1--33333--3333-1-3-5^------------------|
G|--------------------------------------------------------|
D|--------------------------------------------------------|
A|--------------------------------------------------------|
E|--------------------------------------------------------|
Repeat 2x

CHORUS:
       TR~~~             TR~~~      TR~~~~~~     TR~~~ TR~~
E|-----------------------------------------------------------------------=
B|-3--3-555---5-7-9^--3-3-555--3-5-7---0-3333333-5^^5^-1-33333-3333--1~~-=
G|-----------------------------------------------------------------------=
D|-----------------------------------------------------------------------=
A|-----------------------------------------------------------------------=
E|-----------------------------------------------------------------------=


Riff 2(guitar)
    "This is the floorshow..."
E|---------------------------------------------------------|
B|---------------------------------------------------------|
G|---------------------------------------------------------|
D|------------------------------------------------3--4--5--|
A|-3---5--5-5-5---3---5^-5---3---5-5-5-5-5--5--3-----------|
E|---------------------------------------------------------|

Repeat 4X

E|---------------------------------------------------------|
B|---------------------------------------------------------|
G|------------------------------------------------5--6--7--|
D|-3---5--5-5-5---3---5^-5---3---5-5-5-5-5--5--3-----------|
A|---------------------------------------------------------|
E|---------------------------------------------------------|


E|-----------------------------------------------------...
B|-----------------------------------------------------...
G|-1-3-333-1-333-1333-5\3\0/3-5-555-3-555-35555-7\5\2/5...
D|-----------------------------------------------------...
A|-----------------------------------------------------...
E|-----------------------------------------------------...

E|...-----------------------------------------------|
B|...-----------------------------------------------|
G|...-7-777-5-777-57777-9\7\4-6-666-6-666-4666-4~~~-|
D|...-----------------------------------------------|
A|...-----------------------------------------------|
E|...-----------------------------------------------|

SOLO (faster then hell):
/ I'm really not sure about this. Help me out! \
        /????????????????????????????????????????????????\
E|--h-p---))|---------|--------------------------------------------------=
B|-7^8^7-8--|-1-3^~~~-|--------------------------------------------------=
G|o--------o|---------|--------------------------------------------------=
D|o--------o|---------|--------------------------------------------------=
A|----------|---------|--------------------------------------------------=
E|----------|---------|--------------------------------------------------=
Repeat 2x





Comments


Popular Sisters Of Mercy tabs & chords
Gimme Shelter 1 Bass Tabs
Lights 1 Bass Tabs
Marian 1 Bass Tabs
Possession 1 Bass Tabs
Torch Bass Tabs
19 Tabs
Body And Soul 1 Tabs
Floodland 1 Tabs
Lucretia My Reflection 2 Tabs
Some Kind Of Stranger Ukulele


Song lyrics



↑ Back to top | Tablatures and chords are parodies/interpretations of the original songs. You may use it for private study, scholarship, research or language learning purposes only
© 2014 AZChords.com Contact us | Privacy policy | DMCA | Add/correct tabs | Request tabs | Top 50 tabs