» » »

Sisters Of Mercy, Body And Soul Bass tabs (ver.1)

Artists:  A B C D E F G H I J K L M N O P Q R S T U V W X Y Z # 

Body And Soul Bass tabs (ver.1)

Sisters Of Mercy Tabs
Rating:
0/5 (0 votes)
Hard to play? Try these video lessons and learn fast.
                "Body And Soul" by The Sisters of Mercy (from the album ???)

Bass:

riff a:
G|-------------------------------------------------------------9---
D|---------------------------------------------------------7-9-----

riff b:
G|-----------------------------7-------------------------------7---
D|-9-----------------------5-7-----7-----------------------5-7-----

riff c:
D|-5---------------------------------------------------------------
A|-------------------------0---------------------------------------
E|---------------------------3-2---0-------------------------------

riff d:
D|-------------4-------------0-----------------4-------------0-----
A|-0-2---2---2-----0-2---2-----4---0-2---2---2-----0-2---2-----4---

riff e:
G|-0-0-0-00-0-000--0-0-0-00-0-000--0-0-0-00-0-000--0-0-0-00-0-0000-

riff f:
G|-------------------------------------------------------------9---
D|-5-------------------------------------------------------7-9-----
A|-------------------------0---------------------------------------
E|---------------------------3-2---0-------------------------------

riff g:
D|----------------02----02----02------------------02----02----02---
A|-----------------------------------------------------------------
E|-0-------------------------------0-------------------------------

riff h:
D|----------------02----02----02-------------------2-0-----------0-
A|-----------------------------------------------------0-2---0-2---
E|-0-------------------------------0-------------------------------

riff i:
D|-2-----------------------2-0-2---0-----------------------0---0---
A|-----------------------------------------2-----------------2-----


Guitar 1:

riff a:
A|-------------------------------------------------------------7---
E|---------------------------------------------------------5-7-----

riff b:
A|-----------------------------5-------------------------------5---
E|-7-----------------------3-5-----5-----------------------3-5-----

riff c:
E|-3-----------------------5-3-2---0-------------------------------

riff d:
D|---------------------------0-------------------------------0-----
A|-0-2-2-02--2-20--0-2-2-02----4---0-2-2-02--2-20--0-2-2-02----4---
E|---------------2-------------------------------2-----------------

riff e:
G|-0-------------------------------0-------------------------------

riff f:
G|-0-0-0-0---0-----0-0-0-0-----0-2-0-0-0-0---0-----0-0-0-0-----0-2-
D|-------------4-0-----------4-----------------4-0-----------4-----

riff g:
A|-------------------------------------------------------------7---
E|-3-----------------------5-3-2---0-----------------------5-7-----

riff h:
G|-------------2---0---------------------------2---0---------------
D|-2-----0---------------0---------2-----0---------------0---------

riff i:
G|-------------2---0---------------------------2---0---------------
D|-2-----0---------------0---------2-----0---------------0-----2---


Guitar 2:

riff a:
e|-7-0-010---0-9-0-5-0-0-7---0---0-7-0-010---0-9-0-5-0-0-7---014-0-
B|-----------------------------7-----------------------------------

riff b:
e|-7--------------12-----7---------5--------------19----15---------

riff c:
e|-3--------------12-----7---------0--------------24---------------

riff d:
e|-3--------------12-----7---------0-------------------------------

riff e:
e|-----0---2-----0-----0-----0---0-----0---2-----0-----0-----0---0-
B|-0-----0-----0-----0---0-3---2---0-----0-----0-----0---0-3---2---

riff f:
e|----------------12-----7---------0--------------19---------------

riff g:
e|12-------7-----------------------0--------------19------24-------

riff h:
e|----------------12-------7-------0---------------3---------------

riff i:
e|12--------------19------24------19--------------12---------------


Guitar 3:

riff a:
  -B---------------------------------------------------------------

riff b:
  -G-------------------------------G-------------------------------


How to play:

bass:    |a b c|d d d d|e d|d d|e d|b d b c|d d|e d|g h i i i i|
guitar 1:|a b c|d d d d|e d|d d|f d|b g b c|d d|f d|h i        |
guitar 2:|  a a|a a a a|a a|a a|a a|b c b d|a a|a a|e e f g h i|
guitar 3:|     |a   a  |b a|a  |b a|       |a  |b a|           |
            

comments powered by Disqus
↑ Back to top | Sisters Of Mercy Bass for Body And Soul. Lyrics for acoustic guitar and electric guitar. Tablatures and chords are parodies/interpretations of the original songs. You may use it for private study, scholarship, research or language learning purposes only