» » »

Sisters Of Mercy, 1969 Bass tabs (ver.2)

Artists:  A B C D E F G H I J K L M N O P Q R S T U V W X Y Z # 

1969 Bass tabs (ver.2)

Sisters Of Mercy Tabs
 Rating:
4/5 (4 votes)
1969 lessons Tabs too difficult? Try these video lessons and learn fast
1
                "1969" by The Sisters of Mercy (from the album "Some Girls Wander by Mistake")


BASS :

riff a:
G|---------------------------------------------------------2-0-----
D|-0--0--0--0--0-0-0--0--0--0--0-0-0--0--0--0--0-0-0--0--0-----3-0-

riff b:
A|-5--3--5--3--5-3-5--3--5--3--5-3-5--3--5--3--5-3-5--3--5--3--5-3-

riff c:
A|-5-------------5-3---------0-3-0-

riff d:
A|-5--3--5--3--5-3-5--3--5--3--5-3---------------------------------
E|---------------------------------3--1--3--1--3-1-3--1--3--1--3-1-

riff e:
A|-5-------------5-3---------------

riff f:
A|-5-------------5-3-------------0-5-------------0-3-------------0-

riff g:
A|-5--5--5--5--5-5-3--3--3--3--3-3-5--5--5--5--5-5-3--3--3-0-0-0-0-

riff h:
D|-----------------------------------------------------------5-5-5-
A|-5--3--5--3--5-3-5--3--5---------5--3--5--3--5-3-5--3--5---------
E|---------------------------3-3-3---------------------------------

riff i:
D|-----------------------------------------------------------------
A|-5--3--5--3--5-3-5--3--5---------5-------------0-3---------------
E|---------------------------3-3-3---------------------------------

riff j:
A|-5-


GUITAR 1 :

riff a:
  -D--C--D--C--D-C-D--C--D--C--D-C-D--C--D--C--D-C-D--C--D--C--D-C

riff b:
  -D---------------C---------------

riff c:
  -D--C--D--C--D-C-D--C--D--C--D-C-G--F--G--F--G-F-G--F--G--F--G-F

riff d:
  -D---------------C---------------D---------------C--------------

riff e:
  -D--D--D--D--D-D-C--C--C--C--C-C-D--D--D--D--D-D-C--C--C--C--C-C-

riff f:
  -D--C--D--C--D-C-D--C--D--C--D-G-D--C--D--C--D-C-D--C--D--C--D-G

riff g:
  -D--C--D--C--D-C-D--C--D--C--D-G-D-------------D-C--------------

riff h:
  -D-


GUITAR 2 :

riff a:
B|10-10-10-10-101010-10-10-10-10--10-10-10-10-101010----10-10-1010
G|-------------------------------7--------------------------------

riff b:
B|10-10-10-10-101010-10-10-10-101010----10--1010--10----10-10010--
G|------------------------------------7-----7----7----7----------7

riff c:
B|10-10-10-10-101010----10-1010------10----10---10---10----10-1010
G|------------------------------7--7-----7-----7---7-----7--------

riff d:
B|---10-------10--10-----------------
G|-7-----7---------------------------


HOW TO PLAY :

bass:    |a b b c|b b b c|d d e f g|h h h i j|
guitar 1:|  a a b|a a a b|c c b d e|f f f g h|
guitar 2:|       |       |         |a b c d  |
            
Submit corrections

comments powered by Disqus
↑ Back to top | Sisters Of Mercy Bass for 1969. Lyrics for acoustic guitar and electric guitar. 1 Tablatures and chords are parodies/interpretations of the original songs. You may use it for private study, scholarship, research or language learning purposes only