>
 >
Voices Within

Voices Within Guitar Tabs

Sirenia - Voices Within chords, tabs, tablatures, lyrics

Guitar lessons | Add/correct | Request | Top 50 tabs Artists:  A B C D E F G H I J K L M N O P Q R S T U V W X Y Z 0-9

Voices Within Guitar Tabs – Sirenia

CD, Sheet music, Poster

Do you like Voices Within? Share with your friends now
Tabs

Tuning: EADGBe
                                     
E||-------|-------|-------|-------|-------------------------|
B||-------|-------|-------|-------|-------------------------|
G||-------|-------|-------|-------|-------------------------|
D||-------|-------|-------|-------|-------------------------|
A||-------|-------|-------|-------|--2----------------------|
E||-------|-------|-------|-------|--0----------------------|

              
--------------------------|-------------------|
--------------------------|-------------------|
--------------------------|-------------------|
--------------------------|--5----------------|
--2-----2-----2--2--------|--3----------------|
--0-----0-----0--0--------|-------------------|


--------------------------------------------------------------------------|
--------------------------------------------------------------------------|
--17-16-15-14-13-12-11-10-9-8-7-6-5-4-3-2-1-------------------------------|
--17-16-15-14-13-12-11-10-9-8-7-6-5-4-3-2-1-5-4-3-2-1-0-1-----------------|
--------------------------------------------5-4-3-2-1-0-1-8-7-6-5-4-3-2-1-|
----------------------------------------------------------8-7-6-5-4-3-2-1-|

           
-------------------|--------------------|-------------------|
-------------------|--------------------|-------------------|
-------------------|--------------------|-------------------|
--9----------------|--9------------4----|--5----------------|
--7----------------|--7------------2----|--3----------------|
-------------------|--------------------|-------------------|

  
-------------------|-------------------|--------------------|
-------------------|-------------------|--------------------|
-------------------|-------------------|--------------------|
--L----------------|--9----------------|--9------------4----|
--L----------------|--7----------------|--7------------2----|
-------------------|-------------------|--------------------|

           
-------------------|-------------------|-------------------|-------------------|
-------------------|-------------------|-------------------|-------------------|
-------------------|-------------------|-------------------|-------------------|
--5----------------|--L----------------|-------------------|--9----------------|
--3----------------|--L----------------|-------------------|--7----------------|
-------------------|-------------------|-------------------|-------------------|

            
-------------------|-------------------|-------------------|-------------------|
-------------------|-------------------|-------------------|-------------------|
-------------------|-------------------|-------------------|-------------------|
--L----------------|--7----------------|--5----------------|--9----------------|
--L----------------|--5----------------|--3----------------|--7----------------|
-------------------|-------------------|-------------------|-------------------|

         
-------------------|-------------------|-------------------|
-------------------|-------------------|-------------------|
-------------------|-------------------|-------------------|
--L----------------|--7----------------|--5----------------|
--L----------------|--5----------------|--3----------------|
-------------------|-------------------|-------------------|


--------------------------|--------------------------|
--------------------------|--------------------------|
--------------------------|--------------------------|
--2--2--2--2--2--2--2--2--|--2--2--2--2--2--7--7--7--|
--2--2--2--2--2--2--2--2--|--2--2--2--2--2--5--5--5--|
--0--0--0--0--0--0--0--0--|--0--0--0--0--0-----------|
  .  .  .  .  .  .  .  .     .  .  .  .  .
 
--------------------------|--------------------------|
--------------------------|--------------------------|
--------------------------|--------------------------|
--2--2--2--2--2--2--2--2--|--2--2--2--2--2--7--7--7--|
--2--2--2--2--2--2--2--2--|--2--2--2--2--2--5--5--5--|
--0--0--0--0--0--0--0--0--|--0--0--0--0--0-----------|
  .  .  .  .  .  .  .  .     .  .  .  .  .

   
--------------------------|--------------------------|
--------------------------|--------------------------|
--5--5--5--5--5--5--5--5--|--5--5--5--5--5--4--4--4--|
--5--5--5--5--5--5--5--5--|--5--5--5--5--5--4--4--4--|
--3--3--3--3--3--3--3--3--|--3--3--3--3--3--2--2--2--|
--------------------------|--------------------------|
  .  .  .  .  .  .  .  .     .  .  .  .  .  

  
--------------------------|--------------------------|
--------------------------|--------------------------|
--2--2--2--2--2--2--2--2--|--------------------------|
--2--2--2--2--2--2--2--2--|--5--L-----4--L--x--5--L--|
--0--0--0--0--0--0--0--0--|--5--L-----4--L--x--5--L--|
--------------------------|--3--L-----2--L--x--3--L--|


  PM PM PM PM PM PM PM PM    PM PM PM PM PM           
  E  E  E  E  E  E  E  E     E  E  E  E  E  E  E  E   
--------------------------|--------------------------|
--------------------------|--------------------------|
--------------------------|--------------------------|
--2--2--2--2--2--2--2--2--|--2--2--2--2--2--7--7--7--|
--2--2--2--2--2--2--2--2--|--2--2--2--2--2--5--5--5--|
--0--0--0--0--0--0--0--0--|--0--0--0--0--0-----------|


  PM PM PM PM PM PM PM PM    PM PM PM PM PM           
  E  E  E  E  E  E  E  E     E  E  E  E  E  E  E  E   
--------------------------|--------------------------|
--------------------------|--------------------------|
--------------------------|--------------------------|
--2--2--2--2--2--2--2--2--|--2--2--2--2--2--7--7--7--|
--2--2--2--2--2--2--2--2--|--2--2--2--2--2--5--5--5--|
--0--0--0--0--0--0--0--0--|--0--0--0--0--0-----------|


  E  E  E  E  E  E  E  E     E  E  E  E  E  E  E  E   
--------------------------|--------------------------|
--------------------------|--------------------------|
--5--5--5--5--5--5--5--5--|--5--5--5--5--5--4--4--4--|
--5--5--5--5--5--5--5--5--|--5--5--5--5--5--4--4--4--|
--3--3--3--3--3--3--3--3--|--3--3--3--3--3--2--2--2--|
--------------------------|--------------------------|


  E  E  E  E  E  E  E  E     E  E  E  E  E  E  E  E     W                 
--------------------------|--------------------------|-------------------|
--------------------------|--------------------------|-------------------|
--2--2--2--2--2--2--2--2--|--------------------------|--9----------------|
--2--2--2--2--2--2--2--2--|--5--L-----4--L--x--5--L--|--9----------------|
--0--0--0--0--0--0--0--0--|--5--L-----4--L--x--5--L--|--7----------------|
--------------------------|--3--L-----2--L--x--3--L--|-------------------|


  W                   W                   H        E  E  E  E   
-------------------|-------------------|-----------------------|
-------------------|-------------------|-----------------------|
--7----------------|--7----------------|--5--------5--7--------|
--7----------------|--7----------------|--5--------5--7--------|
--5----------------|--5----------------|--3--------3--5--------|
-------------------|-------------------|-----------------------|


  W                   W                   W                 
-------------------|-------------------|-------------------|
-------------------|-------------------|-------------------|
--9----------------|--7----------------|--7----------------|
--9----------------|--7----------------|--7----------------|
--7----------------|--5----------------|--5----------------|
-------------------|-------------------|-------------------|


  H        E  E  E  E     E  E  E  E  E  E  E  E                           
-----------------------|--------------------------|-----|-----|-----|-----|
-----------------------|--------------------------|-----|-----|-----|-----|
--5--------5--4--------|--2-----------------------|-----|-----|-----|-----|
--5--------5--4--------|--2-----------------------|-----|-----|-----|-----|
--3--------3--2--------|--0-----------------------|-----|-----|-----|-----|
-----------------------|--------------------------|-----|-----|-----|-----|


                    H        Q    Q       Q    Q    T. T. S S. Q     
-----|-----|-----|---------------------|----------------------------|
-----|-----|-----|---------------------|----------------------------|
-----|-----|-----|-----------4----5----|--5---------5--7--5-L-------|
-----|-----|-----|---------------------|-------7--------------------|
-----|-----|-----|--7------------------|-----------------------7----|
-----|-----|-----|---------------------|----------------------------|


  W                                       Q    Q    Q    Q     
-------------------|-------------------|----------------------|
-------------------|-------------------|----------------------|
--4----------------|-------------------|-------2---------2----|
-------------------|-------------------|----------------------|
-------------------|-------------------|----------------------|
-------------------|-------------------|----------------------|


                      Q    Q    E.  S S S E     W                 
-------------------|-------------------------|-------------------|
-------------------|-------------------------|-------------------|
-------------------|-------5----------5-4-2--|--4----------------|
-------------------|-------------------------|-------------------|
-------------------|-------------------------|-------------------|
-------------------|-------------------------|-------------------|


  H        Q    Q       Q    Q    T. T. S S. Q       W                 
---------------------|----------------------------|-------------------|
---------------------|----------------------------|-------------------|
-----------4----5----|--5---------5--7--5-L-------|--4----------------|
---------------------|-------7--------------------|-------------------|
--7------------------|-----------------------7----|-------------------|
---------------------|----------------------------|-------------------|


                      Q    Q    Q    Q                         
-------------------|----------------------|-------------------|
-------------------|----------------------|-------------------|
-------------------|-------2---------2----|-------------------|
-------------------|----------------------|-------------------|
-------------------|----------------------|-------------------|
-------------------|----------------------|-------------------|


  Q    Q    E.  S S S E     W                   H        Q    Q     
-------------------------|-------------------|---------------------|
-------------------------|-------------------|---------------------|
-------5----------5-4-2--|--4----------------|-----------4----5----|
-------------------------|-------------------|---------------------|
-------------------------|-------------------|--7------------------|
-------------------------|-------------------|---------------------|


  Q    Q    T. T. S S. Q       W                                     
----------------------------|-------------------|-------------------|
----------------------------|-------------------|-------------------|
--5---------5--7--5-L-------|--4----------------|-------------------|
-------7--------------------|-------------------|-------------------|
-----------------------7----|-------------------|-------------------|
----------------------------|-------------------|-------------------|


  Q    Q    Q    Q                           Q    Q    E.  S S S E   
----------------------|-------------------|-------------------------|
----------------------|-------------------|-------------------------|
-------2---------2----|-------------------|-------5----------5-4-2--|
----------------------|-------------------|-------------------------|
----------------------|-------------------|-------------------------|
----------------------|-------------------|-------------------------|


  W                   H        Q    Q       Q    Q    T. T. S S. Q     
-------------------|---------------------|----------------------------|
-------------------|---------------------|----------------------------|
--4----------------|-----------4----5----|--5---------5--7--5-L-------|
-------------------|---------------------|-------7--------------------|
-------------------|--7------------------|-----------------------7----|
-------------------|---------------------|----------------------------|


  W                                       Q    Q    Q    Q     
-------------------|-------------------|----------------------|
-------------------|-------------------|----------------------|
--4----------------|-------------------|-------2---------2----|
-------------------|-------------------|----------------------|
-------------------|-------------------|----------------------|
-------------------|-------------------|----------------------|


  E  E  E  E  E  E  E  E     Q    Q    E.  S S S E     W                 
--3--5--5--L--L--L--L--L--|-------------------------|-------------------|
--------------------------|-------------------------|-------------------|
--------------------------|-------5----------5-4-2--|--4----------------|
--------------------------|-------------------------|-------------------|
--------------------------|-------------------------|-------------------|
--------------------------|-------------------------|-------------------|


  Q    E  E  E  E  E  E     E  E  E  E  E  E  E  E     W                 
-------------------------|--------------------------|-------------------|
-------------------------|--------------------------|-------------------|
-------------------------|--------------------------|-------------------|
-------------------------|--------------------------|--5----------------|
--2----------------------|--2-----2-----2--2--------|--3----------------|
--0----------------------|--0-----0-----0--0--------|-------------------|


   T  T  T  T  T  T  T  T T T T T T T T T T T T T T T T T T T T T T T T T  
--------------------------------------------------------------------------|
--------------------------------------------------------------------------|
--17-16-15-14-13-12-11-10-9-8-7-6-5-4-3-2-1-------------------------------|
--17-16-15-14-13-12-11-10-9-8-7-6-5-4-3-2-1-5-4-3-2-1-0-1-----------------|
--------------------------------------------5-4-3-2-1-0-1-8-7-6-5-4-3-2-1-|
----------------------------------------------------------8-7-6-5-4-3-2-1-|


  W                   H.           Q       W                 
-------------------|--------------------|-------------------|
-------------------|--------------------|-------------------|
-------------------|--------------------|-------------------|
--9----------------|--9------------4----|--5----------------|
--7----------------|--7------------2----|--3----------------|
-------------------|--------------------|-------------------|


  W                   W                   W                   W                 
-------------------|-------------------|-------------------|-------------------|
-------------------|-------------------|-------------------|-------------------|
-------------------|-------------------|-------------------|-------------------|
--L----------------|--9----------------|--L----------------|--7----------------|
--L----------------|--7----------------|--L----------------|--5----------------|
-------------------|-------------------|-------------------|-------------------|


  W                   W                   W                   W                 
-------------------|-------------------|-------------------|-------------------|
-------------------|-------------------|-------------------|-------------------|
-------------------|-------------------|-------------------|-------------------|
--5----------------|--9----------------|--L----------------|--7----------------|
--3----------------|--7----------------|--L----------------|--5----------------|
-------------------|-------------------|-------------------|-------------------|


                      PM PM PM PM PM PM PM PM    PM PM PM PM PM PM PM PM  
  W                   E  E  E  E  E  E  E  E     E  E  E  E  E  E  E  E   
-------------------|--------------------------|--------------------------|
-------------------|--------------------------|--------------------------|
-------------------|--------------------------|--------------------------|
--5----------------|--2--2--2--2--2--2--2--2--|--2--2--2--2--2--7--7--7--|
--3----------------|--2--2--2--2--2--2--2--2--|--2--2--2--2--2--5--5--5--|
-------------------|--0--0--0--0--0--0--0--0--|--0--0--0--0--0-----------|


  PM PM PM PM PM PM PM PM    PM PM PM PM PM           
  E  E  E  E  E  E  E  E     E  E  E  E  E  E  E  E   
--------------------------|--------------------------|
--------------------------|--------------------------|
--------------------------|--------------------------|
--2--2--2--2--2--2--2--2--|--2--2--2--2--2--7--7--7--|
--2--2--2--2--2--2--2--2--|--2--2--2--2--2--5--5--5--|
--0--0--0--0--0--0--0--0--|--0--0--0--0--0-----------|


  E  E  E  E  E  E  E  E     E  E  E  E  E  E  E  E   
--------------------------|--------------------------|
--------------------------|--------------------------|
--5--5--5--5--5--5--5--5--|--5--5--5--5--5--4--4--4--|
--5--5--5--5--5--5--5--5--|--5--5--5--5--5--4--4--4--|
--3--3--3--3--3--3--3--3--|--3--3--3--3--3--2--2--2--|
--------------------------|--------------------------|


  E  E  E  E  E  E  E  E     E  E  E  E  E  E  E  E   
--------------------------|--------------------------|
--------------------------|--------------------------|
--2--2--2--2--2--2--2--2--|--------------------------|
--2--2--2--2--2--2--2--2--|--5--L-----4--L--x--5--L--|
--0--0--0--0--0--0--0--0--|--5--L-----4--L--x--5--L--|
--------------------------|--3--L-----2--L--x--3--L--|


  PM PM PM PM PM PM PM PM    PM PM PM PM PM PM PM PM  
  E  E  E  E  E  E  E  E     E  E  E  E  E  E  E  E   
--------------------------|--------------------------|
--------------------------|--------------------------|
--------------------------|--------------------------|
--2--2--2--2--2--2--2--2--|--2--2--2--2--2--7--7--7--|
--2--2--2--2--2--2--2--2--|--2--2--2--2--2--5--5--5--|
--0--0--0--0--0--0--0--0--|--0--0--0--0--0-----------|


  PM PM PM PM PM PM PM PM    PM PM PM PM PM           
  E  E  E  E  E  E  E  E     E  E  E  E  E  E  E  E   
--------------------------|--------------------------|
--------------------------|--------------------------|
--------------------------|--------------------------|
--2--2--2--2--2--2--2--2--|--2--2--2--2--2--7--7--7--|
--2--2--2--2--2--2--2--2--|--2--2--2--2--2--5--5--5--|
--0--0--0--0--0--0--0--0--|--0--0--0--0--0-----------|


  E  E  E  E  E  E  E  E     E  E  E  E  E  E  E  E   
--------------------------|--------------------------|
--------------------------|--------------------------|
--5--5--5--5--5--5--5--5--|--5--5--5--5--5--4--4--4--|
--5--5--5--5--5--5--5--5--|--5--5--5--5--5--4--4--4--|
--3--3--3--3--3--3--3--3--|--3--3--3--3--3--2--2--2--|
--------------------------|--------------------------|


  E  E  E  E  E  E  E  E     E  E  E  E  E  E  E  E     W                 
--------------------------|--------------------------|-------------------|
--------------------------|--------------------------|-------------------|
--2--2--2--2--2--2--2--2--|--------------------------|--9----------------|
--2--2--2--2--2--2--2--2--|--5--L-----4--L--x--5--L--|--9----------------|
--0--0--0--0--0--0--0--0--|--5--L-----4--L--x--5--L--|--7----------------|
--------------------------|--3--L-----2--L--x--3--L--|-------------------|


  W                   W                   H        E  E  E  E   
-------------------|-------------------|-----------------------|
-------------------|-------------------|-----------------------|
--7----------------|--7----------------|--5--------5--7--------|
--7----------------|--7----------------|--5--------5--7--------|
--5----------------|--5----------------|--3--------3--5--------|
-------------------|-------------------|-----------------------|


  W                   W                   W                 
-------------------|-------------------|-------------------|
-------------------|-------------------|-------------------|
--9----------------|--7----------------|--7----------------|
--9----------------|--7----------------|--7----------------|
--7----------------|--5----------------|--5----------------|
-------------------|-------------------|-------------------|


  H        E  E  E  E     E  E  E  E  E  E  E  E     E  E  E  E  E  E  E  E   
-----------------------|--------------------------|--------------------------|
-----------------------|--------------------------|--------------------------|
--5--------5--4--------|--------------------------|--------------------9--7--|
--5--------5--4--------|--x--x--------------------|--------------7--9--7--5--|
--3--------3--2--------|--x--x--------------------|--------------5--7--------|
-----------------------|--------------------------|--------------------------|


  E  E  H.              E  E  E  E  E  E  E  E     E  E  E  E  E  E  E  E   
---------------------|--------------------------|--------------------------|
---------------------|--------------------------|--------------------------|
---------------------|--------------------------|--------------------------|
--x--x---------------|--------------------------|--x--x--------------------|
--x--x---------------|--------5--4--2--L--L--L--|--x--x--------------------|
---------------------|--------3--2--0-----L--L--|--------------------------|


  E  E  E  E  E  E  E  E     E  E  H.              E  E  E  E  E  E  E  E   
--------------------------|---------------------|--------------------------|
--------------------------|---------------------|--------------------------|
--------------------9--7--|---------------------|--------------------------|
--------------7--9--7--5--|--x--x---------------|--------------------------|
--------------5--7--------|--x--x---------------|--------5--4--2--L--L--L--|
--------------------------|---------------------|--------3--2--0-----L--L--|


  E  E  E  E  E  E  S S E      E  E   E   E  E  E  E  E   
---------------------------|-----------------------------|
---------------------------|-----------------------------|
--x--x---------------------|-----------------------9--7--|
--x--x--9--x--7--9--x-x-9--|--12--x--11---x--7--9--7--5--|
--x--x--7--x--5--7--x-x-7--|--10--x---9---x--5--7--------|
---------------------------|-----------------------------|


  E  E  E  E  E  E  S S E     E  E  E  E  E  E  E  E   
---------------------------|--------------------------|
---------------------------|--------------------------|
--x--x---------------------|--------------------------|
--x--x--9--x--7--9--x-x-9--|--4-----------------------|
--x--x--7--x--5--7--x-x-7--|--2--x--5--4--2--L--L--L--|
---------------------------|-----x--3--2--0-----L--L--|


  E  E  E  E  E  E  S S E      E  E   E   E  E  E  E  E   
---------------------------|-----------------------------|
---------------------------|-----------------------------|
--x--x---------------------|-----------------------9--7--|
--x--x--9--x--7--9--x-x-9--|--12--x--11---x--7--9--7--5--|
--x--x--7--x--5--7--x-x-7--|--10--x---9---x--5--7--------|
---------------------------|-----------------------------|


  E  E  E  E  E  E  S S E     E  E  E  E  E  E  E  E     W                 
---------------------------|--------------------------|-------------------|
---------------------------|--------------------------|-------------------|
--x--x---------------------|--------------------------|--5----------------|
--x--x--9--x--7--9--x-x-9--|--4-----------------------|--5----------------|
--x--x--7--x--5--7--x-x-7--|--2--x--5--4--2--L--L--L--|--3----------------|
---------------------------|-----x--3--2--0-----L--L--|-------------------|


  H        E  S S E  E     E  E  E  E  E  E  E  E     E  E  E  E  E  E  E  E   
------------------------|--------------------------|--------------------------|
------------------------|--------------------------|--------------------------|
--4---------------------|--------------------------|--------------------------|
--4--------7--x-x-5--4--|--2--2--2--2--2--2--2--2--|--2--2--2--2--2--2--2--2--|
--2--------7--x-x-5--4--|--2--2--2--2--2--2--2--2--|--2--2--2--2--2--2--2--2--|
-----------5--x-x-3--2--|--0--0--0--0--0--0--0--0--|--0--0--0--0--0--0--0--0--|


  W                   H        E  S S E  E     E  E  E  E  E  E  E  E   
-------------------|------------------------|--------------------------|
-------------------|------------------------|--------------------------|
--5----------------|--7--------L--L-L-L--L--|--------------------------|
--5----------------|--7--------L--L-L----L--|--2--2--2--2--2--2--2--2--|
--3----------------|--5-------------L----L--|--2--2--2--2--2--2--2--2--|
-------------------|------------------------|--0--0--0--0--0--0--0--0--|


  E  E  E  E  E  E  E  E     W                   W                 
--------------------------|-------------------|-------------------|
--------------------------|-------------------|-------------------|
--------------------------|--5----------------|--4----------------|
--2--2--2--2--2--2--2--2--|--5----------------|--4----------------|
--2--2--2--2--2--2--2--2--|--3----------------|--2----------------|
--0--0--0--0--0--0--0--0--|-------------------|-------------------|


  E  E  E  E  E  E  E  E     E  E  E  E  E  E  E  E     W                 
--------------------------|--------------------------|-------------------|
--------------------------|--------------------------|-------------------|
--------------------------|--------------------------|--5----------------|
--2--2--2--2--2--2--2--2--|--2--2--2--2--2--2--2--2--|--5----------------|
--2--2--2--2--2--2--2--2--|--2--2--2--2--2--2--2--2--|--3----------------|
--0--0--0--0--0--0--0--0--|--0--0--0--0--0--0--0--0--|-------------------|


  H        E  S S E  E     E  E  E  E  E  E  E  E     E  E  E  E  E  E  E  E   
------------------------|--------------------------|--------------------------|
------------------------|--------------------------|--------------------------|
--7--------L--L-L-L--L--|--------------------------|--------------------------|
--7--------L--L-L----L--|--2--2--2--2--2--2--2--2--|--2--2--2--2--2--2--2--2--|
--5-------------L----L--|--2--2--2--2--2--2--2--2--|--2--2--2--2--2--2--2--2--|
------------------------|--0--0--0--0--0--0--0--0--|--0--0--0--0--0--0--0--0--|


  W                   W                   E  E  E  E  E  E  S S E   
-------------------|-------------------|---------------------------|
-------------------|-------------------|---------------------------|
--5----------------|--4----------------|--x--x---------------------|
--5----------------|--4----------------|--x--x--9--x--7--9--x-x-9--|
--3----------------|--2----------------|--x--x--7--x--5--7--x-x-7--|
-------------------|-------------------|---------------------------|


   E  E   E   E  E  E  E  E     E  E  E  E  E  E  S S E   
-----------------------------|---------------------------|
-----------------------------|---------------------------|
-----------------------9--7--|--x--x---------------------|
--12--x--11---x--7--9--7--5--|--x--x--9--x--7--9--x-x-9--|
--10--x---9---x--5--7--------|--x--x--7--x--5--7--x-x-7--|
-----------------------------|---------------------------|


  E  E  E  E  E  E  E  E     E  E  E  E  E  E  S S E   
--------------------------|---------------------------|
--------------------------|---------------------------|
--------------------------|--x--x---------------------|
--4-----------------------|--x--x--9--x--7--9--x-x-9--|
--2--x--5--4--2--L--L--L--|--x--x--7--x--5--7--x-x-7--|
-----x--3--2--0-----L--L--|---------------------------|


   E  E   E   E  E  E  E  E     E  E  E  E  E  E  S S E   
-----------------------------|---------------------------|
-----------------------------|---------------------------|
-----------------------9--7--|--x--x---------------------|
--12--x--11---x--7--9--7--5--|--x--x--9--x--7--9--x-x-9--|
--10--x---9---x--5--7--------|--x--x--7--x--5--7--x-x-7--|
-----------------------------|---------------------------|


  E  E  E  E  E  E  E  E     W                   H        E  S S E  E         
--------------------------|-------------------|------------------------|-----|
--------------------------|-------------------|------------------------|-----|
--------------------------|--5----------------|--4---------------------|-----|
--4-----------------------|--5----------------|--4--------7--x-x-5--4--|-----|
--2--x--5--4--2-----------|--3----------------|--2--------7--x-x-5--4--|-----|
-----x--3--2--0-----------|-------------------|-----------5--x-x-3--2--|-----|


  H        Q    Q       Q    Q    T. T. S S. Q       W                 
---------------------|----------------------------|-------------------|
---------------------|----------------------------|-------------------|
-----------4----5----|--5---------5--7--5-L-------|--4----------------|
---------------------|-------7--------------------|-------------------|
--7------------------|-----------------------7----|-------------------|
---------------------|----------------------------|-------------------|


                      Q    Q    Q    Q                         
-------------------|----------------------|-------------------|
-------------------|----------------------|-------------------|
-------------------|-------2---------2----|-------------------|
-------------------|----------------------|-------------------|
-------------------|----------------------|-------------------|
-------------------|----------------------|-------------------|


  E  E  Q    E  E  E  E     W                   H        Q    Q     
--3--5--L----L--L--L--L--|-------------------|---------------------|
-------------------------|-------------------|---------------------|
-------------------------|--4----------------|-----------4----5----|
-------------------------|-------------------|---------------------|
-------------------------|-------------------|--7------------------|
-------------------------|-------------------|---------------------|


  Q    Q    T. T. S S. Q       W                                     
----------------------------|-------------------|-------------------|
----------------------------|-------------------|-------------------|
--5---------5--7--5-L-------|--4----------------|-------------------|
-------7--------------------|-------------------|-------------------|
-----------------------7----|-------------------|-------------------|
----------------------------|-------------------|-------------------|


  Q    Q    Q    Q                           Q    Q    E.  S S S E   
----------------------|-------------------|-------------------------|
----------------------|-------------------|-------------------------|
-------2---------2----|-------------------|-------5----------5-4-2--|
----------------------|-------------------|-------------------------|
----------------------|-------------------|-------------------------|
----------------------|-------------------|-------------------------|


  W                   H        Q    Q       Q    Q    T. T. S S. Q     
-------------------|---------------------|----------------------------|
-------------------|---------------------|----------------------------|
--4----------------|-----------4----5----|--5---------5--7--5-L-------|
-------------------|---------------------|-------7--------------------|
-------------------|--7------------------|-----------------------7----|
-------------------|---------------------|----------------------------|


  W                                       Q    Q    Q    Q     
-------------------|-------------------|----------------------|
-------------------|-------------------|----------------------|
--4----------------|-------------------|-------2---------2----|
-------------------|-------------------|----------------------|
-------------------|-------------------|----------------------|
-------------------|-------------------|----------------------|


                      Q    Q    E.  S S S E     W                 
-------------------|-------------------------|-------------------|
-------------------|-------------------------|-------------------|
-------------------|-------5----------5-4-2--|--4----------------|
-------------------|-------------------------|-------------------|
-------------------|-------------------------|-------------------|
-------------------|-------------------------|-------------------|


  H        Q    Q       Q    Q    T. T. S S. Q       W                 
---------------------|----------------------------|-------------------|
---------------------|----------------------------|-------------------|
-----------4----5----|--5---------5--7--5-L-------|--4----------------|
---------------------|-------7--------------------|-------------------|
--7------------------|-----------------------7----|-------------------|
---------------------|----------------------------|-------------------|


                      Q    Q    Q    Q                         
-------------------|----------------------|-------------------|
-------------------|----------------------|-------------------|
-------------------|-------2---------2----|-------------------|
-------------------|----------------------|-------------------|
-------------------|----------------------|-------------------|
-------------------|----------------------|-------------------|


  Q    Q    E.  S S S E     W                                     
-------------------------|-------------------|-------------------|
-------------------------|-------------------|-------------------|
-------5----------5-4-2--|--4----------------|-------------------|
-------------------------|-------------------|-------------------|
-------------------------|-------------------|-------------------|
-------------------------|-------------------|-------------------|


-------------------|-------------------|-------------------|-------------------|
-------------------|-------------------|-------------------|-------------------|
-------------------|-------------------|-------------------|-------------------|
-------------------|-------------------|-------------------|-------------------|
-------------------|-------------------|-------------------|-------------------|
-------------------|-------------------|-------------------|-------------------|


-------------------|-------------------|-------------------|-------------------|
-------------------|-------------------|-------------------|-------------------|
-------------------|-------------------|-------------------|-------------------|
-------------------|-------------------|-------------------|-------------------|
-------------------|-------------------|-------------------|-------------------|
-------------------|-------------------|-------------------|-------------------|


-------------------|-------------------|-------------------|-------------------|
-------------------|-------------------|-------------------|-------------------|
-------------------|-------------------|-------------------|-------------------|
-------------------|-------------------|-------------------|-------------------|
-------------------|-------------------|-------------------|-------------------|
-------------------|-------------------|-------------------|-------------------|


-------------------|-------------------|-------------------|-------------------|
-------------------|-------------------|-------------------|-------------------|
-------------------|-------------------|-------------------|-------------------|
-------------------|-------------------|-------------------|-------------------|
-------------------|-------------------|-------------------|-------------------|
-------------------|-------------------|-------------------|-------------------|


-------------------|-------------------|-------------------|-------------------|
-------------------|-------------------|-------------------|-------------------|
-------------------|-------------------|-------------------|-------------------|
-------------------|-------------------|-------------------|-------------------|
-------------------|-------------------|-------------------|-------------------|
-------------------|-------------------|-------------------|-------------------|


-------------------|-------------------|-------------------||
-------------------|-------------------|-------------------||
-------------------|-------------------|-------------------||
-------------------|-------------------|-------------------||
-------------------|-------------------|-------------------||
-------------------|-------------------|-------------------||




Duration Legend
---------------
W - whole
H - half
Q - quarter
E - 8th
S - 16th
T - 32nd
X - 64th
. - note dotted
|-n-|  - n-tuplets


Tablature Legend
----------------
L - tied note
x - dead note
g - grace note
(n) - ghost note
> - accentuded note
NH - natural harmonic
AH - artificial harmonic
TH - tapped harmonic
SH - semi harmonic
PH - pitch harmonic
h - hammer on
p - pull off
b - bend
br - bendRelease
pb - preBend
pbr - preBendRelease
brb - bendReleaseBend
\n/ - tremolo bar dip
\n - tremolo bar dive
-/n - tremolo bar Release up
/n\ - tremolo bar inverted dip
/n - tremolo bar return
-\n - tremolo bar Release down
S - shift slide
s - legato slide
/ -  slide into from below or out of upwards
\ -  slide into from above or out of downwards
~ - vibrato
W - wide vibrato
tr - trill
TP - tremolo picking
T - tapping
S - slap
P - pop
< - fade in
^ - brush up
v - brush down





Comments


Popular Sirenia tabs & chords
Manic Aeon Bass Tabs
A Shadow Of Your Own Self Accoustic Chords
Glades Of Summer Chords
In Sumerian Haze Chords
This Lonely Lake Chords
Lithium And A Lover Tabs
My Mind's Eye Tabs
Sister Nightfall Tabs
The Path To Decay Tabs
This Lonely Lake Ukulele


Song lyrics



↑ Back to top | Tablatures and chords are parodies/interpretations of the original songs. You may use it for private study, scholarship, research or language learning purposes only
© 2014 AZChords.com Contact us | Privacy policy | DMCA | Add/correct tabs | Request tabs | Top 50 tabs