>
 >
My Mind's Eye

My Mind's Eye Guitar Tabs

Sirenia - My Mind's Eye chords, tabs, tablatures, lyrics

Guitar lessons | Add/correct | Request | Top 50 tabs Artists:  A B C D E F G H I J K L M N O P Q R S T U V W X Y Z 0-9

My Mind's Eye Guitar Tabs – Sirenia

CD, Sheet music, Poster

Do you like My Mind's Eye? Share with your friends now
Tabs
-------------------------------------------------------------------------------
-------------------------------------------------------------------------------

Tuning: Standard (EADGBe)

Note: The full version is finally here for all of you to enjoy!

I. Keyboard Intro (0:00 - 0:16)

II. Chorus (0:17 - 0:30)

e----------------------------------------------------------------------------|
B----------------------------------------------------------------------------|
G---------------------4444444444444444---------------------------------------|
D---2222222222222222--4444444444444444----------22222222---22---22---2-------|
A---2222222222222222--2222222222222222----------22222222---22---22---2-------|
E---0000000000000000--------------------0-1-0-2-00000000-3-00-3-00-3-0-------|

e----------------------------------------------------------------------------|
B----------------------------------------------------------------------------|
G---4-4x4x-4-4x4x-4-4x--2-2x2x-2-2x2x-2-2x-----------------------------------|
D---4-4x4x-4-4x4x-4-4x--2-2x2x-2-2x2x-2-2x----*2*----------------------------|
A---2-2x2x-2-2x2x-2-2x--0-0x0x-0-0x0x-0-0x----*2*----------------------------|
E---------------------------------------------*0*----------------------------|

III. Verse (0:31 - 0:57)

  {clean tone}  |8 times|   |4 times|   |4 times|
e--*5*----*3*----------------------------------------------------------------|
B--*5*----*3*----------------------------------------------------------------|
G--*6*----*4*-------4x4x--------2x2x-----------------------------------------|
D--*7*----*5*-------4x4x--------2x2x--------5x5----4----444------------------|
A--*7*----*5*---2x2x2x2x----0x0x0x0x--------5x5----4----444------------------|
E--*5*----*3*---------------------------3x3x3x3----2----222------------------|

IV. Chorus (0:58 - 1:11)

e----------------------------------------------------------------------------|
B----------------------------------------------------------------------------|
G---------------------4444444444444444---------------------------------------|
D---2222222222222222--4444444444444444----------22222222---22---22---2-------|
A---2222222222222222--2222222222222222----------22222222---22---22---2-------|
E---0000000000000000--------------------0-1-0-2-00000000-3-00-3-00-3-0-------|

e----------------------------------------------------------------------------|
B----------------------------------------------------------------------------|
G---4-4x4x-4-4x4x-4-4x--2-2x2x-2-2x2x-2-2x-----------------------------------|
D---4-4x4x-4-4x4x-4-4x--2-2x2x-2-2x2x-2-2x----*2*----------------------------|
A---2-2x2x-2-2x2x-2-2x--0-0x0x-0-0x0x-0-0x----*2*----------------------------|
E---------------------------------------------*0*----------------------------|

V. Verse (1:12 - 1:38)

  {clean tone}  |8 times|   |4 times|   |4 times|
e--*5*----*3*----------------------------------------------------------------|
B--*5*----*3*----------------------------------------------------------------|
G--*6*----*4*-------4x4x--------2x2x-----------------------------------------|
D--*7*----*5*-------4x4x--------2x2x--------5x5----4----444------------------|
A--*7*----*5*---2x2x2x2x----0x0x0x0x--------5x5----4----444------------------|
E--*5*----*3*---------------------------3x3x3x3----2----222------------------|

VI. Chorus (1:39 - 1:51)

e----------------------------------------------------------------------------|
B----------------------------------------------------------------------------|
G---------------------4444444444444444---------------------------------------|
D---2222222222222222--4444444444444444----------22222222---22---22---2-------|
A---2222222222222222--2222222222222222----------22222222---22---22---2-------|
E---0000000000000000--------------------0-1-0-2-00000000-3-00-3-00-3-0-------|

e----------------------------------------------------------------------------|
B----------------------------------------------------------------------------|
G---4-4x4x-4-4x4x-4-4x--2-2x2x-2-2x2x-2-2x-----------------------------------|
D---4-4x4x-4-4x4x-4-4x--2-2x2x-2-2x2x-2-2x-----------------------------------|
A---2-2x2x-2-2x2x-2-2x--0-0x0x-0-0x0x-0-0x-----------------------------------|
E----------------------------------------------------------------------------|

VII. Bridge (1:52 - 2:31)

      
e|---------------------------------------------------------------------------|
B|---------------------------------------------------------------------------|
G|---------------------------------------------------------------------------|
D|---5-5x5x-5-5-5x-5-5-5x5x-----------5-5x5x-5-5-5x-5-5-5x5x-----------------|
A|---5-5x5x-5-5-5x-5-5-5x5x-----------5-5x5x-5-5-5x-5-5-5x5x-----------------|
E|---3-3x3x-3-3-3x-3-5-3x3x--3-5-3-0--3-3x3x-3-3-3x-3-5-3x3x--5-3-2-0--------|

e|---------------------------------------------------------------------------|
B|---------------------------------------------------------------------------|
G|---4-4x4x-4-4-4x-4-----------------4-4x4x-4-4-4x-4-------------------------|
D|---4-4x4x-4-4-4x-4-----------------4-4x4x-4-4-4x-4-------------------------|
A|---2-2x2x-2-2-2x-2-----------------2-2x2x-2-2-2x-2-------------------------|
E|--------------------0-1-0-2-0-3-0-------------------0-3-0-2-0-1-0----------|
 
e|---------------------------------------------------------------------------|
B|---------------------------------------------------------------------------|
G|---------------------------------------------------------------------------|
D|---5-5x5x-5-5-5x-5-5-5x5x-----------5-5x5x-5-5-5x-5-5-5x5x-----------------|
A|---5-5x5x-5-5-5x-5-5-5x5x-----------5-5x5x-5-5-5x-5-5-5x5x-----------------|
E|---3-3x3x-3-3-3x-3-5-3x3x--3-5-3-0--3-3x3x-3-3-3x-3-5-3x3x--5-3-2-0--------|

e|---------------------------------------------------------------------------|
B|---------------------------------------------------------------------------|
G|---4-4x4x-4-4-4x-4-----------------4-4x4x-4-4-4x-4-------------------------|
D|---4-4x4x-4-4-4x-4-----------------4-4x4x-4-4-4x-4-------------------------|
A|---2-2x2x-2-2-2x-2-----------------2-2x2x-2-2-2x-2-------------------------|
E|--------------------0-1-0-2-0-3-0-------------------0-3-0-2-0-1-0----------|

e|---------------------------------------------------------------------------|
B|---------------------------------------------------------------------------|
G|---------------------------------------------------------------------------|
D|---5-5x5x-5-5-5x-5-5-5x5x-----------5-5x5x-5-5-5x-5-5-5x5x-----------------|
A|---5-5x5x-5-5-5x-5-5-5x5x-----------5-5x5x-5-5-5x-5-5-5x5x-----------------|
E|---3-3x3x-3-3-3x-3-5-3x3x--3-5-3-0--3-3x3x-3-3-3x-3-5-3x3x--5-3-2-0--------|

e|---------------------------------------------------------------------------|
B|---------------------------------------------------------------------------|
G|---4-4x4x-4-4-4x-4-----------------4-4x4x-4-4-4x-4---4x4x4x4x---4\---------|
D|---4-4x4x-4-4-4x-4-----------------4-4x4x-4-4-4x-4---4x4x4x4x---4\---------|
A|---2-2x2x-2-2-2x-2-----------------2-2x2x-2-2-2x-2---2x2x2x2x---2\---------|
E|--------------------0-1-0-2-0-3-0------------------------------------------|

VIII. Solo (2:32 - 2:52)

e|---------------------------------------------------------------------------|
B|---------------------------------------------------------------------------|
G|---/12~--9--9/16-16-16-16--14-12-11~--7--7/14-14-14-14--12-11--11/12~------|
D|---------------------------------------------------------------------------|
A|---------------------------------------------------------------------------|
E|---------------------------------------------------------------------------|

e|---------------------------------------------------------------------------|
B|---------------------------------------------------------------------------|
G|---9--9/16--19/11--11~--12-11-9-11-9~--9-7-9--7-4--2/4~--------------------|
D|---------------------------------------------------------------------------|
A|---------------------------------------------------------------------------|
E|---------------------------------------------------------------------------|

e|---------------------------------------------------------------------------|
B|---------------------------------------------------------------------------|
G|---4h6h7-6h7h9-6h7h9-7h9h11-7h9h11-9h11h12-9h11h12-11h12h14---/16~---------|
D|---------------------------------------------------------------------------|
A|---------------------------------------------------------------------------|
E|---------------------------------------------------------------------------|

IX. Final Chorus (2:53 - 3:37)

e----------------------------------------------------------------------------|
B----------------------------------------------------------------------------|
G---------------------4444444444444444---------------------------------------|
D---2222222222222222--4444444444444444----------22222222---22---22---2-------|
A---2222222222222222--2222222222222222----------22222222---22---22---2-------|
E---0000000000000000--------------------0-1-0-2-00000000-3-00-3-00-3-0-------|

e----------------------------------------------------------------------------|
B----------------------------------------------------------------------------|
G---4-4x4x-4-4x4x-4-4x--2-2x2x-2-2x2x-2-2x-----------------------------------|
D---4-4x4x-4-4x4x-4-4x--2-2x2x-2-2x2x-2-2x-----------------------------------|
A---2-2x2x-2-2x2x-2-2x--0-0x0x-0-0x0x-0-0x-----------------------------------|
E----------------------------------------------------------------------------|

e----------------------------------------------------------------------------|
B----------------------------------------------------------------------------|
G---------------------4444444444444444---------------------------------------|
D---2222222222222222--4444444444444444----------22222222---22---22---2-------|
A---2222222222222222--2222222222222222----------22222222---22---22---2-------|
E---0000000000000000--------------------0-1-0-2-00000000-3-00-3-00-3-0-------|

e----------------------------------------------------------------------------|
B----------------------------------------------------------------------------|
G---4-4x4x-4-4x4x-4-4x--2-2x2x-2-2x2x-2-2x-----------------------------------|
D---4-4x4x-4-4x4x-4-4x--2-2x2x-2-2x2x-2-2x----*2*----*4*---------------------|
A---2-2x2x-2-2x2x-2-2x--0-0x0x-0-0x0x-0-0x----*2*----*4*---------------------|
E---------------------------------------------*0*----*2*---------------------|

************************************

| *   Let ring
| /   Slide up
| \   Slide down
| h   Hammer-on
| p   Pull-off
| ~   Vibrato
| +   Harmonic
| x   Mute note
| b   Bend
| pb  Pre-bend
| br  Bend release
| pbr Pre-bend release
| brb Bend release bend

************************************





Comments


Popular Sirenia tabs & chords
Manic Aeon Bass Tabs
In Sumerian Haze Chords
This Lonely Lake Chords
A Mental Symphony Tabs
The Path To Decay Tabs
The Path To Decay 1 Tabs
Voices Within Tabs
A Shadow Of Your Own Self Accoustic Ukulele
Glades Of Summer Ukulele
This Lonely Lake Ukulele


Song lyrics



↑ Back to top | Tablatures and chords are parodies/interpretations of the original songs. You may use it for private study, scholarship, research or language learning purposes only
© 2014 AZChords.com Contact us | Privacy policy | DMCA | Add/correct tabs | Request tabs | Top 50 tabs