» » »

Sirenia, Manic Aeon Bass tabs (ver.1)

Artists:  A B C D E F G H I J K L M N O P Q R S T U V W X Y Z # 

Manic Aeon Bass tabs (ver.1)

Sirenia Tabs
Rating:
0/5 (0 votes)
Manic Aeon lessons Tabs too difficult? Try these video lessons and learn fast
                -------------------------------------------------------------------------------
-------------------------------------------------------------------------------


Tuning: Standard

Intro 0:08    (3:12)
G|--------------------------------|
D|----------------4-------2-------|
A|----------------------------5-4-|
E|2-------------------------------|

Walking BassLine (verse) 0:16   (3:20)
G|----------------|----------------|
D|----------------|----------------|
A|--------4-----2-|--------5-4-0-2-|
E|2-2-5-2---2-5---|2-2-5-2---------|x8

Riff 2 0:49   (3:53)
G|-----------------|-----------------|----------------|----------------|
D|-----------------|-----------------|----------------|----------------|
A|5-5-5-5-xx5-x5---|4-4-4-4-xx4-x4---|----------------|----------------|
E|-----------------|-----------------|22222-22222-----|22222-22222-----|x2
                                          <     <          <     <

Pre-Chorus 1:04   (4:08)
G|--------------------------------|--------------------------------|
D|--------------------------------|--------------------------------|
A|------------------------5-7-----|------------------------5-7-----|
E|7-------3---2---0-----------7--5|7-------3---2---0-----------7--5|

Chorus 1:20    (4:24)
G|----------------------------------------------------------------|
D|----------------------------------------------------------------|
A|----------------5-5-5-5-5-5-5-5-----------------7-7-7-7-7-7-7-7-|
E|7-7-7-7-7-7-7-7-----------------5-5-5-5-5-5-5-5-0-0-0-0-0-0-0-0-|x4

Solo Background 1:52    (4:56)
G|----------------------------------------------------------------|
D|----------------------------------------------------------------|
A|----------------------------5-5---------------------------------|
E|7-7-7-7-7-7-7-7-0-0-0-3-3-3-----7-7-7-7-7-7-7-7-3-3-3-0-0-0-5-5-|x2

2:08 Riff     (5:12)
G|-|----------------|----------------|----------------|----------------|
D|o|----------------|----------------|----------------|----------------|
A|o|----------------|----------------|----------------|----------------|
E|-|2-2-2-2-2-2-2-2-|2-2-3-2-3/5-5-3-|2-2-2-2-2-2-2-2-|2-2-3-2-3/5-5-5-|

G|----------------|----------------|----------------|----------------|-|
D|----------------|----------------|----------------|----------------|o|
A|----------------|----------------|----------------|----------------|o|
E|5-5-5-5-5-5-5-5-|5-5-6-5-6/8-8-6-|5-5-5-5-5-5-5-5-|5-5-6-5-6/8-8-6-|-|

Chanting (choir) 2:40    (5:44)
G|-|--------------------------------|--------------------------------|
D|o|--------------------------------|--------------------------------|
A|o|--------------------------------|--------------------------------|
E|-|2-2-2-------2-2---2-2---3-------|2-2-2-------2-2---2-------------|

G|--------------------------------|--------------------------------|-|
D|--------------------------------|--------------------------------|o|
A|--------------------------------|--------------------------------|o|
E|2-2-2-------2-2---2-2---3-------|2-2-2-------2-2---2-----7---5---|-|

Go back to Intro and repeat Everything. 

Last Note
G|---------|
D|---------|
A|---------|
E|2--------|

| /  slide up
| \  slide down
| h  hammer-on
| p  pull-off
| ~  vibrato
| +  harmonic
| x  Mute note
===============================================================================
            
Submit corrections

comments powered by Disqus
↑ Back to top | Sirenia Bass for Manic Aeon. Lyrics for acoustic guitar and electric guitar. Tablatures and chords are parodies/interpretations of the original songs. You may use it for private study, scholarship, research or language learning purposes only