>
 >
The Bloodfeast

The Bloodfeast Guitar Tabs

Sinister - The Bloodfeast chords, tabs, tablatures, lyrics

Guitar lessons | Add/correct | Request | Top 50 tabs Artists:  A B C D E F G H I J K L M N O P Q R S T U V W X Y Z 0-9

The Bloodfeast Guitar Tabs – Sinister

CD, Sheet music, Poster

Do you like The Bloodfeast? Share with your friends now
Tabs



Rhythm Guitar Transcribed on Bass 
Tuning (Low - High): D G C F 

Palm-Mute Notation (.): 
pm - moderate pm;  pml - light pm;  pmh - heavy pm 
  

Intro 
|-------------4-----------------------| 
|-------5--4--2--5--4-----------------| 
|-3--2--3--2-----3--2--3-/5-\3-/5-\3--| 
|-1--0-----------------1-/3-\1-/3-\1--| 
  pm..........   pm.... 
  

A 
|------------------------------------|--------------------| 
|------------------------------------|---------3-2-----1~-| 
|-----------------3------------------|-------3-----3-2----| 
|-0-0-0-0-0-0-0-0-1--0-0-0-0-0-0-0-0-|-0-1-5--------------| 
  pm..............   pm..............  pml............. 
  

B 
|------------------------------------|---------5-----------4---3-------| 
|------------------------------------|-3---6---5---3---2---4---3---8---| 
|-----------------3------------------|-3---6---3---3---2---2---1---6---| 
|-0-0-0-0-0-0-0-0-1--0-0-0-0-0-0-0-0-|-1---4-------1---0-----------6---| 
  pm..............   pm..............  pmh............................. 
  

|------------------------------------|-----|-------------------------| 
|------------------------------------|-----|----5--4-----------------| 
|-----------------3------------------|-3---|-2--3--2--3-/5-\3-/5-\3--| 
|-0-0-0-0-0-0-0-0-1--0-0-0-0-0-0-0-0-|-1---|-0--------1-/3-\1-/3-\1--| 
  pm..............   pm..............        pm. 
  

Repeat A and B 
Repeat A 

C 
|------------------------------------|--------------------| 
|------------------------------------|---8---------5------| 
|-----------------3------------------|-5-----7---2--------| 
|-0-0-0-0-0-0-0-0-1--0-0-0-0-0-0-0-0-|-----6---1------1p0-| 
  pm..............   pm..............  pml................ 
  

Repeat A and B 
Repeat A, C and A 
  

|------------------------------------|-------------------| 
|------------------------------------|-------5--------4--| 
|-----------------3------------------|-3--6--3--3--2--2--| 
|-0-0-0-0-0-0-0-0-1--0-0-0-0-0-0-0-0-|-1--4-----1--0-----| 
  pm..............   pm.................................. 
  

D                              (x4) 
|---------------------------------|   On the fourth time, 
|-8--------8----------------------|   the last three notes 
|-6--------6------------1---------|   not palm-muted. 
|-6--0-0-0-6--0-0-0-3-1---3-0-1-0-| 
  pm.............................. 
  

E1 
|------------------|-----------------------| 
|-------7p6-----6~-|----------2~-----------| 
|---7h8-----7h8----|-6--5--2-----3--5------| 
|-0----------------|-4--3--0-----1--3--0-0-| 
                     pm.......   pm........ 

E2 
|--------------------|----------------------| 
|---------7-------6~-|----------4-----------| 
|-----7-8---0-7-8----|-6--5--2--2--3--5--6--| 
|-7-8----------------|-4--3--0-----1--3--4--| 
  pm.............. 
  

Repeat (E1 and E2) x5 
Repeat D 
Repeat (E1 and E2) x4 
  

F (Fast!)                                        (x4) 
|-------------------------|-------------------------| 
|-------------------8-----|---------8-8---------7---| 
|-----------------5-----7-|---------------7-4-5-----| 
|-0-0-0-0-0-0-0-0-----6---|-0-0-0-0-----6---------4-| 
  pm..............          pm...... 
  

G1 
|---------------------------------------------| 
|-------------7-7-7-7-9-9-9-9-----------------| 
|-----------------------------9-9-9-9-7-7-7-7-| 
|-0-0-0-0-0-0-----------------8-8-8-8---------| 
  pm..........pml............................. 

G2 
|-------------------------------------| 
|-------------------------------------| 
|-2---2---9/10-10-10--9-9-9-9-7-7-7-7-| 
|-0---0---------------8-8-8-8---------| 
  pm......            pml............. 

Repeat G1 

G3 
|-------------------------------------| 
|-------------------------------------| 
|-2---2---9/10-10-10--9-9-9-9-7-7-7-7-| 
|-0---0---------------7-7-7-7-6-6-6-6-| 
  pm......            pml............. 
  

Repeat G1, G2, G1 and G3 
Repeat F 
  

H1 
|------------------------------------|--------------------| 
|------------------------------------|---------3-2-----1~-| 
|-----------------3------------------|-------3-----3-2----| 
|-0-0-0-0-0-0-0-0-1--0-0-0-0-0-0-0-0-|-0-1-5--------------| 
  pm..............   pm..............  pml............. 

H2 
|------------------------------------|------------------| 
|------------------------------------|-------3-2-----1~-| 
|-----------------3------------------|-----3-----3-2----| 
|-0-0-0-0-0-0-0-0-1--0-0-0-0-0-0-0-0-|-1-5--------------| 
  pm..............   pm..............  pm............... 

Repeat H1, H2, and H1 

I1                        I2 
|-------------------------|-------------------------------------------------| 
|-------------------------|----------------------------5--5--5--3--3--3--3--| 
|-------------------2--6--|-------------------------------------------------| 
|-1--0--0--3--0--0--------|-1--1--1--3--3--3--4--4--4-----------------------| 
  pm........................................................................ 
  

J 
|---------------------------|----------------------------| 
|---------------------------|----------------------------| 
|---------------------------|-9/10-10-10-9-9-9-9-7-7-7-7-| 
|-2-2-2-2-2-3p2-2-2-2-2-2-2-|------------8-8-8-8---------| 
  pm.........................            pml............. 

Repeat I2 

K 
|---------------------------|-----------------------------| 
|---------------------------|-----------------------------| 
|---------------------------|-9-/10-10-10-9-9-9-9-7-7-7-7-| 
|-2-2-2-2-2-3p2-2-2-2-2-2-2-|-------------7-7-7-7-6-6-6-6-| 
  pm.........................             pml............. 
  

Repeat F, G1, G2, G1, and G3 
Repeat G1, G2, and G3 
  

L                                              (x2) 
|-------------------------------------------------| 
|-------------------------------------------------| 
|-2---2---------------------------9-9-9-9-7-7-7-7-| 
|-0---0---6h7-7-7-7-7-5h6-6-6-6-6-7-7-7-7-6-6-6-6-| 
  pm......pml..................................... 
  

M 
|----------------------------------| 
|----------------------------------| 
|-2---2---2---9--12--10--9----7----| 
|-0---0---0--------------7----6----| 
  pm.......... 
  

N1 
|---------------------------------------------------------| 
|---------------------7-7-7-7---------9-9-9-9-10-10-10-10-| 
|-----------------------------5-5-5-5---------------------| 
|-0---1-1-1-1-1-1-1-1-------------------------------------| 
      pm..............pml................................. 

N2 
|---------------------------------------------------------| 
|---------------------7-7-7-7-9-9-9-7h9-9-9-9-10-10-10-10-| 
|---------------------------------------------------------| 
|-0-0-0-0-0-0-0-0-0-0-------------------------------------| 
  pm..................pml................................. 

Repeat N1 and N2 

O1      (Vocal: Slaughter House !) 
|-------------------------------------------------------------------------| 
|-------------------------------------------------------------------------| 
|-------------------------------------------------------------------------| 
|-1-1-1-1-1-1-1-1-1-1-1-1-3-3-3-3-3-3-3-3-3-3-3-3-0-0-0-0-0-0-0-0-0-0-0-0-| 
  pm...................................................................... 

O2 
|---------------------------------------| 
|---------------------------------------| 
|---------3----------3----------3---2---| 
|-1-1-1-1----1-1-1-1----1-1-1-1-1---0---| 
  pm......   pm......   pm......pmh..... 

Repeat O1 and O2 
Repeat (N1 and N2) x2 
Repeat (O1 and O2) x2 
Repeat F 

P 
|-------------------| 
|-8--------8--------| 
|-6--------6--------| 
|-6--0-0-0-6--0-0-0-| 
     pm....   pm.... 

Repeat F and P 
Repeat (E1 and E2) x2 
Repeat D 

D" 
|-------------------------------| 
|-8--------8--------------------| 
|-6--------6--------------------| 
|-6--0-0-0-6--0-0-0-3-1-0-0-0-0-| 
  pm............................ 
  

Repeat (D and D") x3 
  

Outro 
|----------------------------------------------------------------| 
|----------4-----------------------------------------------------| 
|-6--5--2--2--3--5--2--------------------------------------------| 
|-4--3--0-----1--3--0--------------------------------------------| 
  pm......................................Let Muted Note Resonate 
  

The End. 
  

Erik 
---------------------- 





Comments


Popular Sinister tabs & chords
Bastard Saints Tabs
Diabolical Summonings Tabs
Enslave The Weak Tabs
Epoch Of Denial Tabs
Sadistic Intent Tabs
Sense Of Demise Tabs


Song lyrics



↑ Back to top | Tablatures and chords are parodies/interpretations of the original songs. You may use it for private study, scholarship, research or language learning purposes only
© 2014 AZChords.com Contact us | Privacy policy | DMCA | Add/correct tabs | Request tabs | Top 50 tabs