>
 >
Sense Of Demise

Sense Of Demise Guitar Tabs

Sinister - Sense Of Demise chords, tabs, tablatures, lyrics

Guitar lessons | Add/correct | Request | Top 50 tabs Artists:  A B C D E F G H I J K L M N O P Q R S T U V W X Y Z 0-9

Sense Of Demise Guitar Tabs – Sinister

CD, Sheet music, Poster

Do you like Sense Of Demise? Share with your friends now
Tabs

Rhythm Guitar Transcribed on Bass
Tuning (low - High): D G C F


Intro Drums & Vocals

A1   Guitars Enter
|----------------------------------------------------------------------|
|----------------------------------------------------------------------|
|-------------2--3-/8----------------8--7-\3----------------2--3-/8----|
|-0-0-0-0-0-0------------0-0-0-0-0-0------------0-0-0-0-0-0------------|
  pm..........           pm..........           pm..........

A2
|-------------------------------------------------|
|-------------------------5-5-3-3-2-2-------------|
|-5-5-3-3-2-2-5-5-3-3-2-2-------------5-5-3-3-2-2-|
|-------------------------------------------------|
  pm..............................................

Repeat A1

A3
|--------------------------5-5-4---|
|--5---4---3-3-2---5-5-4-----------|
|--3---2---------------------------|
|----------------------------------|
           pm..................

B    Play 8 Times
|----------------------------------|
|----------------------------------|
|-----2-------3-------5--------3---|
|-3-3-----3-3-----3-3-----3-3------|
  pm...............................

Repeat A1, A2, A1 & A3

C                 (1)                        (2 & 3)
|-------------------------------------|-------------------|
|-------------------------------------|-------------------|
|-------------------------------------|-------------------|
|-2h3-3-3-3-3-3-3-3-6p3-3-3-3-3-3-3-3-|-1h2-2-2-2-2-2-2-2-|
  pm......................................................

Repeat C x 7

D                    Play 4 Times
|-----------------------------------------------------------------|
|-5------5------------------6\-----------------6\-----------------|
|-6------6------------------7\-----------------7\-----------------|
|-----0------0-0-0-0--0--0------0-0-0-0--0--0------0-0-0-0--0--0--|
      pm     pm.............    pm.............    pm.............

Fill
|---------------|
|-8------8------|
|-6------6------|
|-6------6------|
  pm...

E1
|------------------------------------------------------|
|-3----------------------------------------------------|
|-3----------------------------------------------------|
|-1------------1-1-1-1-1-1-1-1-1-1-1-1-1-1-1-1-1-1-1-1-|
               pm......................................

E2
|------------------------------------------------------|
|-6----------------------------------------------------|
|-6----------------------------------------------------|
|-4----4-4-4-4-4-4-4-4-4-4-4-4-4-4-4-4-4-4-4-4-4-4-4-4-|
       pm..............................................

E3
|------------------------------------------------------|
|-5----------------------------------------------------|
|-5----------------------------------------------------|
|-3----3-3-3-3-3-3-3-3-3-3-3-3-3-3-3-3-3-3-3-3-3-3-3-3-|
       pm..............................................

E4                            Slower
|-3--------------------------|---------------------------------|
|-3--------------------------|---------------------------------|
|-1----1-1-1-1-1-1-1-1-1-1-1-|-1---------------3-------2-------|
|----------------------------|---2-1-0-5-2-1-0---4-3-2---3-2-1-|
       pm......................................................

Repeat E1, E2 & E4

E5                            Slower
|-----------------------------|---------------------------------|
|-4---------------------------|---------------------------------|
|-4---------------------------|-1---------------3-------2-------|
|-2-----2-2-2-2-2-2-2-2-2-2-2-|---2-1-0-5-2-1-0---4-3-2---3-2-1-|
       pm......................................................

Repeat C
Repeat D

F
|---------------------------------|
|---------------------------------|
|---------------------------------|
|-?-?-?-?-?-?---------------------|
  pm...

THAT'S HOW MUCH I'VE DONE...FOR NOW!


Erik
----------------------





Comments


Popular Sinister tabs & chords
Bastard Saints Tabs
Diabolical Summonings Tabs
Enslave The Weak Tabs
Epoch Of Denial Tabs
Sadistic Intent Tabs
The Bloodfeast Tabs


Song lyrics



↑ Back to top | Tablatures and chords are parodies/interpretations of the original songs. You may use it for private study, scholarship, research or language learning purposes only
© 2014 AZChords.com Contact us | Privacy policy | DMCA | Add/correct tabs | Request tabs | Top 50 tabs